Wallflowers - Into The Mystic Chords & Tabs

 

Into The Mystic Chords & Tabs

Wallflowers Chords & Tabs

Version: 1 Type: Bass Tab 0 ratings
1 star 2 stars 3 stars 4 stars 5 stars
comments

Into The Mystic Bass Tab

ARTIST: The Wallflowers
TITLE: Into The Mystic
ALBUM: Soundtrack of "American Wedding"
YEAR: 2003
BAND MEMBERS: Jakob Dylan - Singer/Guitarist
              Rami Jaffee - Keyboardist
              Greg Richling - Bassist
              Mario Calire - Drummer
 
TABBER: Crystle Eguita (ill_6rrrl@hotmail.com)  
DATE: Friday, September 24, 2004. 1:36PM

---
Basically, I listened to the song and wrote down the tabs. It's not 
hard to play at all, but I'm not sure if these tabs are right. Sorry,
this isn't the whole song, I got lazy. HOPE YOU ALL ENJOY ANYWAYS!
---


BASS TABS:

VERSE 1

|------------------|
|------------------|  REPEAT x8
|------------------|  
|-0--7h9-7--4h2-0--|

|------------------|-----------------|
|------------------|-----------------|
|----9h11-9--6h4---|-9h11-9-11-6-----|
|-7--------------7-|--------------0--|


|---------------|---------------------|
|---------------|---------------------|
|---------------|---------------------|
|-7h9-7--4h2-0--|-7h9-9-7-9-7--4h2-0--|


|------------------|
|------------------|  REPEAT x4
|------------------|  
|-0--7h9-7--4h2-0--|
[ Tab from: http://www.guitartabs.cc/tabs/w/wallflowers/into_the_mystic_btab.html ]
|------------------|-----------------|
|------------------|-----------------|
|----9h11-9--6h4---|-9h11-9-11-6-----|
|-7--------------7-|--------------0--|

|---------------|-------------|
|---------------|-------------|
|---------------|-------------|
|-7h9-7--4h2-0--|-7h9-7--4h2--|



PRE-CHORUS:

|---------------------|--------------------|
|---------------------|--------------------|
|---------------------|--------------------|
|-4-4p0-4--4-5-5p0-5--|-5-0--7h9-7--4h2-0--|

|-------------|---------------------|
|-------------|---------------------|
|-------------|---------------------|
|-7h9-7--4h2--|-4-4p0-4--4-5-5p0-5--|

|----------------------------|
|----------------------------|
|----------------------------|
|-5-7-7--7-2-7--7-7-7-7-2-7--|


CHORUS:

|------------------|---------------------|
|------------------|---------------------| REPEAT X2
|------------------|---------------------|
|-0--7h9-7--4h2-0--|-7h9-9-7-9-7--4h2-0--|

|------------------|-----------------|
|------------------|-----------------|
|----9h11-9--6h4---|-9h11-9-11-6-----|
|-7--------------7-|--------------0--|

|---------------|---------------------|
|---------------|---------------------|
|---------------|---------------------|
|-7h9-7--4h2-0--|-7h9-9-7-9-7--4h2-0--|



*That's all I have for now. It's practically the same throughout the whole song. But
you'll have to listen to it to figure out how it goes.
Comments