Wallflowers - Heroes Chords & Tabs

 

Heroes Chords & Tabs

Wallflowers Chords & Tabs

Version: 2 Type: Bass Tab 0 ratings
1 star 2 stars 3 stars 4 stars 5 stars
comments

Heroes Bass Tab

   
“Heroes”
The Wallflowers
Godzilla Soundtrack
Tabbed by P.J. Martin

Verse A
    D                                                         G
g|------------------------------------------------------------------------------|

d|------------------------------------------------------------------------------|

a|-5-5-5-5-5-5-5-5-5-5-5-5-5-5-5-5-/-------2-----------------2-----2-3-4-|

e|-----------------------------------------3-3---3-3-3-3-3-3-3---3-3---------|

Verse B
   D                                                         G
g|--------------------------------------------------------------------------------|

d|--------------------------------------------------------------------------------|

a|-5-5-5-5-5-5-5-5-5-5-5-5-5-5-5-5-/--------2-----------------2---------2-3-|
to chorus
e|------------------------------------------3-3---3-3-3-3-3-3-3---3-3-3-------|



Chorus

   C                                                    D
g|---------------------------------------------------------------------------|

d|---------------------------------------------------------------------------|

A|-3-3-3-3-3-3-3-3-3-3-3-3-3-3-3-3-5-5-5-5-5-5-5-5-5-5-5-5-5-5-5-5-|
e|----------------------------------------------------------------------------|

[ Tab from: http://www.guitartabs.cc/tabs/w/wallflowers/heroes_btab_ver_2.html ]
   Am                           Em                       D
g|------------------------------------------------------------------------------|

d|------------------------------------------------------------------------------|

a|-0-0-0-0-0-0-3-0----------------------5-5-5-5-5-5-5-5-5-5-5-5-5-5-5-5-|

e|----------------------0-0-3-0-0-0-3-3--------------------------------------|

   Am                          Em                       D
g|------------------------------------------------------------------------------|

d|------------------------------------------------------------------------------|

a|-0-0-0-0-0-0-3-0----------------------5-5-5-5-5-5-5-5-5-5-5-5-2-2-3-3-|
to verse
e|----------------------0-0-3-0-0-0-3-3--------------------------------------|

Ending-

D
G                                                         D
g|-----------------------------------------------------------------------------------------------|

d|-----------------------------------------------------------------------------------------------|

a|-5-5-5-5-5-5-5-5-/-12-12-12-/-10-10-10-/-9/-5------2-----------------2--------2-3-4-5--|

e|----------------------------------------------------3-3---3-3-3-3-3-3-3---3-3---------------|

Verse A repeat x3
Verse B
Chorus
Verse A  repeat x2
Verse B
Chorus
Verse A repeat x3
Verse B
Chorus
Verse A repeat x4
Ending
Comments