Wallflowers - For The Life Of Me Chords & Tabs

 

For The Life Of Me Chords & Tabs

Wallflowers Chords & Tabs

Version: 1 Type: Tab 0 ratings
1 star 2 stars 3 stars 4 stars 5 stars
comments

For The Life Of Me Tab

Electric Guitar Intro to
"For The Life of Me"
by The Wallflowers
Album:The Wallflowers

standard tuning

this is just the distortedelectric part of the intro, played many times
throughout the song..more tab to come of this song but this is the intro for now

s-slide
p-pull off
h-hammer on
[ Tab from: http://www.guitartabs.cc/tabs/w/wallflowers/for_the_life_of_me_tab.html ]
e----------------------------------------------------------|
B----------------------------------------------------------|
G----0-0-2p0-2s4s7--------0-0-2p0----------0-0-2p0-2s4s7---|
D-0h2-0----------------0h2--------0-----0h2-0--------------|
A----------------------------------------------------------|
E----------------------------------------------------------|

 ----------------------------------|
 ----------------------------------|
 ------12-12-14h13-11s9-7----------|
 -12h14----------------------------|
 ----------------------------------|
 ----------------------------------|

very simple i need some help figuring out the acoustic parts though
     stevejohnson156@sbcglobal.net
Comments