Walker T Bone - Stormy Monday Blues Chords & Tabs

 

Stormy Monday Blues Chords & Tabs

Walker T Bone Chords & Tabs

Version: 1 Type: Tab 0 ratings
1 star 2 stars 3 stars 4 stars 5 stars
comments

Stormy Monday Blues Tab

   
STORMY MONDAY BLUES

As recorded by T - Bone Walker



Gtr I (E A D G B E) - 'T-Bone Walker clean electric'

Q.=63
 12/8

  Gtr I
  H.      Q.   Q  E   Q.   E E E Q.   Q.     H.      Q.   Q  E
|-------------------|----------------------|-----------------4S===|
|-----------------6S|=5----------3----4----|-3---------------4S===|
|-----------------6S|=5--------3------3----|-2---------------4S===|
|-----------------5S|=4------4--------4----|-3---------------3S===|
|-----------------6S|=5----5----------3----|-2--------------------|
|-------------------|----------------------|----------------------|


  H.      Q.   Q.     Q.   E E E Q.   +Q   E   Q.   E E E Q.   Q.
|-3-----------------|------------------------|-----------------4-----|
|-3------------4----|-3------2-3-4----(4)--4-|-3----2-3-4-3----4-----|
|-3------------3----|-2------1-2-3----(3)--3-|-2----1-2-3-2----4-----|
|-2------------4----|-3------2-3-4----(4)--4-|-3----2-3-4-3----3-----|
|--------------3----|-2------1-2-3----(3)--3-|-2----1-2-3-2----------|
|-------------------|------------------------|-----------------------|

[ Tab from: http://www.guitartabs.cc/tabs/w/walker_t_bone/stormy_monday_blues_tab.html ]
  H.      Q.   E Q    H.      Q.   Q.     Q.   E E E Q.   +Q   E
|----------------4--|-------------------|-------------------------|
|-3--------------4--|-3------------4----|-3------2-3-4----(4)--4--|
|-2--------------4--|-2------------3----|-2------1-2-3----(3)--3--|
|-3--------------3--|-3------------4----|-3------2-3-4----(4)--4--|
|-2-----------------|-2------------3----|-2------1-2-3----(3)--3--|
|-------------------|-------------------|-------------------------|


  Q.   E E E Q.   Q.     H.      Q.   E Q    H.      Q.   Q.
|-----------------4----|-5--------------4--|-3------------------|
|-3----2-3-4-3----4----|-5--------------4--|-3------------4-----|
|-2----1-2-3-2----4----|-5--------------4--|-3------------3-----|
|-3----2-3-4-3----3----|-4--------------3--|-2------------4-----|
|-2----1-2-3-2---------|-------------------|--------------3-----|
|----------------------|-------------------|--------------------|


  Q.   E E E Q.   +Q   E   E Q  E E E E Q  Q.     H.      H.
|------------------------|----------------------|---------------*|
|-3------2-3-4----(4)--4-|-3----2-3-4-3----4----|-3-------------*|
|-2------1-2-3----(3)--3-|-2----1-2-3-2----3----|-2-------------*|
|-3------2-3-4----(4)--4-|-3----2-3-4-3----4----|-3-------------*|
|-2------1-2-3----(3)--3-|-2----1-2-3-2----3----|-2-------------*|
|------------------------|----------------------|---------------*|

Comments