Waking Kills The Dream - Everything Acoustic Chords & Tabs

 

Everything Acoustic Chords & Tabs

Waking Kills The Dream Chords & Tabs

Version: 1 Type: Tab 0 ratings
1 star 2 stars 3 stars 4 stars 5 stars
comments

Everything Acoustic Tab

   
Waking Kills The Dream - Everything (Acoustic)
Added To UG by Mikhailo (mikhailo_@mail.ru)


intro(2x) and verse(4x) guitar 1 
e|-----------------------------------------------------------------------------| 
b|-----------------------------------------------------------------------------| 
g|-----------------------------------------------------------------------------| 
d|-----10-----10---------10-----10---10-----10-----10----------10------10------| 
a|---8----8------8-----8------7----8------8----8------8------8----8-------8----| 
e|-6--------6------6-6------6-----------8--------8------8-10--------10------10-| 

verse(4x) guitar 2 after guitar 1 plays intro 
e|---------------------------------------------------------------------------------| 
b|---------------------------------------------------------------------------------| 
g|------9------9-----------9------9-----------12------12-----------12------12------| 
d|---10---10-----10-----10---10-----10-----10----10------10-----10----10------10---| 
a|-8---------8------8-8---------8------8-8----------8-------8-8----------8-------8-| 
e|---------------------------------------------------------------------------------| 

chorus(4x) guitar 1 
e|-------------------------------------------------------------------------| 
b|-------------------------------------------------------------------------| 
g|-------------------------------------------------------------------------| 
d|-8-8-x-8-8-x-8-8-x-12-12-x-10-10-x-10-10-x-------------------------------| 
a|-8-8-x-8-8-x-8-8-x-12-12-x-10-10-x-10-10-x-------------------------------| 
e|-6-6-x-6-6-x-6-6-x-10-10-x-8--8--x-8--8--x-------------------------------| 

chorus(2x) guitar 2 
e|---------------------------8-6-5--------------------------------------| 
b|-10-10-8-6-6-5-5p6-6-5p6-6-------8-6-5-6------------------------------| 
g|----------------------------------------------------------------------| 
d|----------------------------------------------------------------------| 
a|----------------------------------------------------------------------| 
e|----------------------------------------------------------------------| 

bridge 1(2x) guitar 1 
e|-------------------------------------------------------------| 
b|-------------------------------------------------------------| 
g|-------------------------------------------------------------| 
d|-12-12-12~-10-10-10~-8-8-8~-8-7-3~---------------------------| 
a|-12-12-12~-10-10-10~-8-8-8~-8-8-3~---------------------------| 
e|-10-10-10~--8--8--8~-6-6-6~-6-5-1~---------------------------| 

bridge 1(2x) guitar 2 (second time don't play last three notes) 
e|-------------------------------------8-------------------------| 
b|-3-5-6-5-6-5-8-6-5-6-5-1-3-5-6-5-6-5---10-6-8-10-8-------------| 
g|---------------------------------------------------------------| 
d|---------------------------------------------------------------| 
a|---------------------------------------------------------------| 
e|---------------------------------------------------------------| 

repeat verse (guitar doesn't come in until guitar 1 plays twice and then each 
plays twice more) 

repeat chorus 

repeat bridge 1 

bridge 2(2x) guitar 1 (after u get down to the last 7's on the d string just
hit the 8 and 7 at the same time) 
e|-----------------------------------------------------------------------------------------| 
b|-----------------------------------------------------------------------------------------| 
g|-----------------------------------------------------------------------------------------| 
d|-----------------------------------------------------------------------------------------| 
a|----12----12----12----10----10----10----10----10----8----8----8----7----7----7----8----7-| 
e|-10----10----10----10----10----10----10----10----10---10---10---10---10---10---10---10---| 
[ Tab from: http://www.guitartabs.cc/tabs/w/waking_kills_the_dream/everything_acoustic_tab.html ]
e|-----------------------------------------------------------------------------------| 
b|-----------------------------------------------------------------------------------| 
g|-----------------------------------------------------------------------------------| 
d|-----------------------------------------------------------------------------------| 
a|----12---12---12---10---10---10---10---10---8---8---8---7---7---7---8---7----------| 
e|--8----8----8----8----8----8----8----8----8---8---8---8---8---8---8---8------------| 

bridge 2(1x) guitar 2 (wait until guitar 1 does it once) 
e|-----------------------------------------------------------------------------------------------|
b|-----------------------------------------------------------------------------------------------|
g|-----------------------------------------------------------------------------------------------|
d|-----------------------------------------------------------------------------------------------|
a|12-12-12-12-12-12-12-10-10-10-10-10-10-10-10-10--8--8--8--8--8--8--8--7--7--7--7--7--8--8--7--7|
e|10-10-10-10-10-10-10-10-10-10-10-10-10-10-10-10-10-10-10-10-10-10-10-10-10-10-10-10-10-10-10-10|

e|----------------------------------------------------------------------------| 
b|----------------------------------------------------------------------------| 
g|----------------------------------------------------------------------------| 
d|----------------------------------------------------------------------------| 
a|-12-12-12-12-12-12-12-10-10-10-10-10-10-10-10-10--8--8--8--8--8--8--8--7~---| 
e|--8--8--8--8--8--8--8--8--8--8--8--8--8--8--8--8--8--8--8--8--8--8--8--8~---| 

outro(4x) guitar 1 
e|--------------------------------------------------------------------------------| 
b|--------------------------------------------------------------------------------| 
g|--------------------------------------------------------------------------------| 
d|--------------------------------------------------------------------------------| 
a|-12-12-12-12-10-10-10-10-10-10-10-10-10--8--8--8--8--7--7--7--7--8--8--7--7-----| 
e|-10-10-10-10-10-10-10-10-10-10-10-10-10-10-10-10-10-10-10-10-10-10-10-10-10-----| 

e|--------------------------------------------------------------------------------| 
b|--------------------------------------------------------------------------------| 
g|--------------------------------------------------------------------------------| 
d|--------------------------------------------------------------------------------| 
a|-12-12-12-12-10-10-10-10-10-10-10-10-10--8--8--8--8--7--7--7--7--8--8--7--7-----| 
e|--8--8--8--8--8--8--8--8--8--8--8--8--8--8--8--8--8--8--8--8--8--8--8--8--8-----| 

outro guitar 2(4x part I and 8x part II) 

part I 
e|-----------------------------------------------------------------| 
b|-10-10-10-10-8-8-8-8-8-8-8-8-6-6-6-6-5-5-5-5-6-6-5-5-------------| 
g|-----------------------------------------------------------------| 
d|-----------------------------------------------------------------| 
a|-----------------------------------------------------------------| 
e|-----------------------------------------------------------------| 

part II 
e|-------------8-8-8-8---------------------------------------------| 
b|-10-10-10-10---------8-8-8-8-------------------------------------| 
g|-----------------------------------------------------------------| 
d|-----------------------------------------------------------------| 
a|-----------------------------------------------------------------| 
e|-----------------------------------------------------------------| 

end note guitar 1 
e|-------------------| 
b|-------------------| 
g|-------------------| 
d|-------------------| 
a|-12~---------------| 
e|-10~---------------| 

end note guitar 2 
e|-------------------| 
b|-10~---------------| 
g|-------------------| 
d|-------------------| 
a|-------------------| 
e|-------------------| 

thats probably 99% right i hope you guys like it if you;ve ever heard the song on
the american hardcore compilation its really really good acoustic they guys are a
great band if you like from autumn to ashes you will probably like these guys so
try to find there stuff.
Comments