Waking Ashland - I Am For You Chords & Tabs

 

I Am For You Chords & Tabs

Waking Ashland Chords & Tabs

Version: 3 Type: Tab

I Am For You Tab

Band- Waking Ashland
Song- I Am For You
Tabber- Luigi_717

This is 100% correct

Intro
e|--------------------------------------------------------11--10----------|
B|----------------11----------------------11-----------------------11-----|
G|------------------------------------------------------------------------|
D|-10----13------------------10-----13---------------13-------------------|
A|------------------------------------------------------------------------|
E|------------------------------------------------------------------------|

[ Tab from: http://www.guitartabs.cc/tabs/w/waking_ashland/i_am_for_you_tab_ver_3.html ]
Verses
e|--1---1---1-1-1-1--|          |--1--|
B|--2---3---3-3-3-3--|          |--1--|
G|--3---3---3-3-3-3--| (repeat) |--2--| 
D|--3---3---3-3-3-3--|          |--3--| <- LAST TIME
A|--1---1---1-1-1-1--|          |--3--|
E|------1------------|          |--1--|


Pre-Chorus (Don't Give Up)
e|--1---1---1---1--|       
B|--3---3---2---3--|       
G|--3---3---3---3--| POWER CHORDS (?STRUMMING?)
D|--3---3---3---3--|         
A|--1---1---1---1--|          
E|------1-------1--|


Chorus (I AM For You)
e|--1---1---1---1--|       
B|--3---3---2---3--|       
G|--3---3---3---3--| POWER CHORDS (?STRUMMING?)
D|--3---3---3---3--|         
A|--1---1---1---1--|          
E|------1-------1--|


Bridge
e|--3---1---1--|
B|--4---3---3--|
G|--3---3---3--| 
D|--1---3---3--|
A|--1---1---1--|
E|------1------|