Wakefield - Goodbye Chords & Tabs

 

Wakefield Chords & Tabs

Version: 1 Type: Tab 0 ratings
1 star 2 stars 3 stars 4 stars 5 stars
comments

Goodbye Tab

   
-----------------------------------------------------------------------
SONG NAME- GOODBYE
Band Name - WAKEFIELD
-------------------------------------------------------------------------------
Tabbed by:DANiel KosAKOwskI

Tuning:  step down(Eb Ab Db Gb Bb Eb)

e|----------------------------------------|
B|------------------------------2h3p2-----|
G|------2-------2-------2-----2-----------|        REPEAT 5 x's
D|----2---2-------2-------2---------------|
A|--0-------0-------0---------------------|
E|------------4-------2-----2-------------|
[ Tab from: http://www.guitartabs.cc/tabs/w/wakefield/goodbye_tab.html ]
  Guitar 1
e|---------------------------------------------------------------|
B|---------------------------------------------------------------|
G|--6-7-6--6-7-6-6-7-9-76h7p6-----6-7-6-6-7-9-6----6-7-9-7-6----|
D|-7------7-----7-------------7---7-----7---------7-----------7--|
A|---------------------------------------------------------------|
E|---------------------------------------------------------------|
  Guitar 2
e|-------------------------------------------------|
B|-------------------------------------------------|
G|--------------------7--7-----9--9----------------|
D|--7--7-----4--4-----7--7-----9--9----------------|
A|--7--7-----4--4-----5--5-----7--7----------------|
E|--5--5-----2--2---------------------0--2---------|
    this is my 1st tab. it sounds perfect. im tryin
    to get the rest of the song. WAKEFIELD ROCKS!!
Comments