Wake - Ready To Go Chords & Tabs

 

Ready To Go Chords & Tabs

Wake Chords & Tabs

Version: 1 Type: Bass Tab 0 ratings
1 star 2 stars 3 stars 4 stars 5 stars
comments

Ready To Go Bass Tab

G-------------------------------------------------------------
D-------------------------------------------------------------
A--------------3--3--3--3-------------------------------------
E--5--5--5--5--------------1--1--1--1---3--3--3--3------------(x4)

G-------------------------------------------------------------
D-------------------------------------------------------------
A-------------------------------------------------------------
E--5--5--0-0-0-0-0-0-0-0--1-1--3-3-3-3-3-3--5-5---------------(x2)
[ Tab from: http://www.guitartabs.cc/tabs/w/wake/ready_to_go_btab.html ]
G-------------------------------------------------------------
D-------------------------------------------------------------
A-------------------------------------------------------------
E-5-5-5-5-5-5-5-5--1-1-1-1--3-3-3-3---------------------------(x8)

G-------------------------------------------------------------
D-------------------------------------------------------------
A------------------8-8--7-7-----------------------------------
E-5-5-5-5-5-5-5-5---------------------------------------------(x2)

REPEAT WHOLE THING (x4)
Comments