Wake - Dont Know What To Say Chords & Tabs

 

Dont Know What To Say Chords & Tabs

Wake Chords & Tabs

Version: 1 Type: Tab 0 ratings
1 star 2 stars 3 stars 4 stars 5 stars
comments

Dont Know What To Say Tab

Wake - Dont Know What to Say

e---------------------  INTRO GUITAR 1 X1 CLEAN
B---------------------  X5 DISTORTION
G------------------333
D--9999-5-55-77777-333
A--9999-5-55-77777-555
E--7777-3-33-55555----

e------------           INTRO GUITAR 2 X4 
B------------
G----7-------
D---------7-5
A--55-5555---
E------------

e------------           VERSE RHYTHM GUITAR X5
B------------
G------------
D--9--7--9--5
A--9--7--9--5
E--7--5--7--3

e---------------------  VERSE LEAD GUITAR X5
B---------------------
G--------777-------555
D--99999-777-77777-555
A--99999-555-77777-333
E--77777-----55555----
...PM...     .....
[ Tab from: http://www.guitartabs.cc/tabs/w/wake/dont_know_what_to_say_tab.html ]
e---------------------  CHORUS BOTH GUITARS X4
B--------------------- 
G------------------333
D--9999-5-55-77777-333
A--9999-5-55-77777-555
E--7777-3-33-55555----

VERSE
CHORUS
BASS SOLO
(FOR GUITAR)

A--------5-3-2-3-2      BASS SOLO X2
E--7-3-5---------- 

e--4p5-7-4p5-2-4p5-2p4-2~~~  LEAD GUITAR SOLO X1
B--------------------------
G--------------------------
D--------------------------
A--------------------------
E--------------------------

INTRO X2
CHORUS
GUITAR 1 - CARRY ON CHORUS X5
GUITAR 2 - INTRO PLUCKING X5

e---------------
B---------------
G---------------
D--9999-5~~~~~~~
A--9999-5~~~~~~~
E--7777-3~~~~~~~
Comments