Waits Tom - Rain Dogs Chords & Tabs

 

Rain Dogs Chords & Tabs

Waits Tom Chords & Tabs

Version: 1 Type: Tab 0 ratings
1 star 2 stars 3 stars 4 stars 5 stars
comments

Rain Dogs Tab

#----------------------------------PLEASE NOTE---------------------------------#
#This file is the author's own work and represents their interpretation of the #
#song. You may only use this file for private study, scholarship, or research. #
#------------------------------------------------------------------------------##
#

From: GLove1012@aol.com
Date: Thu, 8 Aug 1996 13:37:04 -0400


Song :  Rain Dogs
Group:  Tom Waits
CD   :  Rain Dogs



(electric clean low end pickup w/ room reverb guitar lead)
  Inside a broken clock...
[-------X2---------------]
---------------------------------------------------------------------
---------------------------------------------------------------------
---------------------------------------------------------------------
-----4-------4-------5-------5------------7---6-4-------------------------
-------4-------4---5---5---5------4---3-4-------------------------------
-2-------2-------3-------3-------------------------------------------
[ Tab from: http://www.guitartabs.cc/tabs/w/waits_tom/rain_dogs_tab.html ]
                      Oh, how we danced...
---------------------------------------------------------------------
-7-7--6-6--5-5--4-4---6--6--6--6-----7-----------------6--6--6--6----
-6-6--6-6--6-6--6-6---6--6--6--6-----6-----------------6--6--6--6----
-----------------------------------4---3-3-2-2-1-0-------------------
---------------------------------------------------4-----------------
---------------------------------------------------------------------

                         Oh, how we danced...
----------------------------------------------------------7-7--5-5---
-----7-6-----5-----------6--6--6--6-----7-------5---------7-7--7-7---
---6---------------------6--6--6--6----------------------------------
-4-------3-2---2-1-0------------------4---3-3-2---2-1-0--------------
---------------------4-----------------------------------------------
---------------------------------------------------------------------

---------------------------------------------------------------------
-------7-------------------------------------------------------------
-----5---------------------------------------------------------------
---6-----------------------------------------------------------------
---------4-2---------------------------------------------------------
-4-----------5-4-2---------------------------------------------------
Comments