Waits Tom - On The Nickel Chords & Tabs

 

On The Nickel Chords & Tabs

Waits Tom Chords & Tabs

Version: 1 Type: Tab 0 ratings
1 star 2 stars 3 stars 4 stars 5 stars
comments

On The Nickel Tab

   
#----------------------------------PLEASE NOTE---------------------------------#
#This file is the author's own work and represents their interpretation of the #
#song. You may only use this file for private study, scholarship, or research. #
#------------------------------------------------------------------------------##
#

From: HENSCHJ5753@uni.edu
Date: Thu, 15 Feb 1996 18:09:40 -0600 (CST)
Subject: Tom Waits_On the Nickel

On the Nickle--Tom Waits

>From "Heartattack and Vine 

Starts in the key of F# major:
Intro:
         B        F#        B        F#        B       F#  D#m   
e-------|--------|---------|--------|---------|-------|----------|
b-------|--------|6-7------|--------|---------|-------|6-7-------|
G-------|------8-|---------|------8-|6--------|-----8-|----6-----|
D-------|----9---|---------|----9---|---------|----9--|--------6-|
A---9-8-|6-9-----|-----9-8-|6-9-----|-----9-8-|6-9----|------9---|
E-------|--------|---------|--------|---------|-------|----------|

  G#m  C#   F#  
e----------|-----||
b----------|-----||
G----------|-----||
D-8------6-|-----||
A---9--9---|9----||
E----------|-----||


Key change to Ab:
[ Tab from: http://www.guitartabs.cc/tabs/w/waits_tom/on_the_nickel_tab.html ]
         B       G            Db        Ab           
e------|--------|------------|--------|-----||
b------|--------|7-8---------|--------|-----||
G------|------8-|----7-------|------10|-8---||
D------|----9---|------------|-----11-|-----||
A--9-8-|6-9-----|------11-10-|8-11----|-----||
E------|--------|------------|--------|-----||


Key change to Bb:
          Db        A              Eb         Bb           
e--------|---------|--------------|---------|------||
b--------|---------|9-10----------|---------|------||
G--------|------10-|------9-------|-------12|-10---||
D--------|----11---|--------------|-----13--|------||
A--11-10-|8-11-----|--------13-12-|10-13----|------||
E--------|---------|--------------|---------|------||


Ending:
           Eb            G               C           G      
e--------|-------------|---------------|-----------|----||
b--------|-------------|---------------|-----------|----||
G--------|----------12-|-11-12---------|---------9-|-7--||
D--------|-------13----|-------12------|------10---|----||
A--13-12-|-10-13-------|----------10-9-|-7-10------|----||
E--------|-------------|---------------|-----------|----||

Notes:
The tabs are not exactly guitar parts, but are string parts on the
song. I'm not a guitarist, so I don't know what are the best
fingerings, but these are the right notes.

Jeff Henscheid
henschj5753@cobra.uni.edu



Comments