Waits Tom - I Hope That I Don’t Fall In Love With You Chords & Tabs

 

I Hope That I Don’t Fall In Love With You Chords & Tabs

Waits Tom Chords & Tabs

Version: 1 Type: Tab 0 ratings
1 star 2 stars 3 stars 4 stars 5 stars
comments

I Hope That I Don’t Fall In Love With You Tab

#----------------------------------PLEASE NOTE---------------------------------#
#This file is the author's own work and represents their interpretation of the #
#song. You may only use this file for private study, scholarship, or research. #
#------------------------------------------------------------------------------#

Tom Waits
     I hope that I don’t fall in love with you
     Album: Closing Time (1973)



   Okay so yeah this is officially my first tab. 
Ill prolly have many more to follow since there are many tabs 
Id like that aren’t on this site.  Well this is an amazing song. 
But since I am very broke I cant get the Tom Waits Recording of 
this song so I was forced to tab this off of Hootie and the Blowfish’s
Live Cover. It is still great and sounds amazing.  It isn’t
completely correct but damn close. And since I used Microsoft
word its kinda gay looking but hey it works. Enjoy….


Intro 2x

E----------------------------------------------------------------------------------------------------------
B-------------1----------------1--------------------1----------------1------------0--------------0---------
G-----------------0---------------2---------------------0---------------0-------------0------------0------
D--------2-----------------3-------------------------------------------------------------------------------
A--3--------------------3------------------------2----------------2-------------2-------------2------------
E----------------------------------------------3---------------3-------------3--------------3--------------

Verses 1X 
E---------------------------------------------------------------------------------------------------------
B-------------1----------------1--------------------1----------------1------------0--------------0--------
G-----------------0---------------2---------------------0---------------0-------------0------------0------
D--------2-----------------3------------------------------------------------------------------------------
A--3--------------------3------------------------2----------------2-------------2-------------2-----------
E----------------------------------------------3---------------3-------------3--------------3-------------

E---------------------------------------------------------------------------------------------------------
B-------------1----------------1--------------------1----------------1------------0--------------0--------
G-----------------0---------------2---------------------0---------------0-------------0------------0------
D--------2-----------------3------------------------------------------------------------------------------
A--3--------------------3------------------------2----------------2-------------2-------------2-----------
E----------------------------------------------3---------------3-------------3--------------3-------------


[ Tab from: http://www.guitartabs.cc/tabs/w/waits_tom/i_hope_that_i_dont_fall_in_love_with_you_tab.html ]
E----------------------------------------------------------------------------------------------------------------------
B--------1----------------1----------------3------------------1-----------------1----------------1---------------------
G-----------2----------------0-----------------0-----------------0-----------------2----------------0---------------2--
D-----3---------------2-----------------------------------2------------------3----------------2--------------3---0-----
A--3---------------3-------------------2--------------3------------------3----------------3--------------3-------------
E-----------------------------------3----------------------------------------------------------------------------------

E--------------------------------------------------------------------------
B----------3-----------------3----------------3-----------------3----------
G-------------0-----------------0----------------0-----------------0-------
D--------------------------------------------------------------------------
A------2-----------------2----------------2-----------------2--------------
E---3----------------3----------------3-----------------3------------------

E------------------------------------------------------------------------------------------------------------------
B----------1--------------1--------------3--------------1-----------1---------------0--------0------1------3-------
G-------------0--------------2--------------0-------------0------------0---------------0---------------------------
D------2--------------3------------------------------2-----------2---------------2---------------------------------
A---3--------------3------------------2-----------3-----------3--------------3------------------3-------3-------3--
E-----------------------------------3------------------------------------------------------------------------------

That is played over all the verses


In the verse that starts “Closing Time_________the music’s fading out” 
 the 


E------------------
B----------1------
G-------------0---
D------2-----------
A---3--------------
E------------------   is repeated 4X while he holds the note then 
the verse continues.

and then the little riff played after the last verse at the end goes.


E--------------------------------------------------0-----------------------------------------------
B----------0h1-------------------1p0---------------1-----------------------------------------------
G-----------------0------------------0-------------0-----------------------------------------------
D------2--------------------2----------------------2-----------------------------------------------
A---3--------------------3-------------------------3-----------------------------------------------
E--------------------------------------------------0----------------------------------------------





Well that’s that. I hope this works and Im sorry I couldn’t do it 
straight from the Tom Waits version but this sounds great
 and does the song justice. Thank you and goodnight.


Peace Bitches,

PAT
Comments