Waits Tom - Downtown Train Chords & Tabs

 

Downtown Train Chords & Tabs

Waits Tom Chords & Tabs

Version: 1 Type: Tab 0 ratings
1 star 2 stars 3 stars 4 stars 5 stars
comments

Downtown Train Tab

   
#----------------------------------PLEASE NOTE---------------------------------#
#This file is the author's own work and represents their interpretation of the #
#song. You may only use this file for private study, scholarship, or research. #
#------------------------------------------------------------------------------#

Tom Waits - Downtown train

I love Tom Waits and this song is really beautiful.
In my opinion, this is just a correct version of the song. I've played it along the record and it doesn't
seem to be problems. For any suggestions and opinions: alessandro.gio@libero.it

e-11------------------------------------------
B-------------------------------8-6-4-4-------
G-----10-12-10-8-8---------7-8----------------
D--------------------8-10---------------------
A---------------------------------------------
E---------------------------------------------

Intro: Eb Ab Bb x 2



Verse:

Eb         Ab   Bb     Eb       

Outside another yellow moon ect ...



Chorus:

Eb                Ab  Bb Eb             Ab Bb

Will I see you tonight   on a downtown train

Eb          Ab   Ab / G   Fm     Bb7  

every night it's just the same ect ...




Bridge:

Ab7+         Bb7sus4         Ab7+               Bb7add6

The downtown trains are full with all of those Brooklyn girls

Cm7                  Bb7sus4

They try so hard to break out ect ...

[ Tab from: http://www.guitartabs.cc/tabs/w/waits_tom/downtown_train_tab.html ]
e--------8-6----6-8-6--------8-6-6-8------12------------------------------------------------
B------6------6------------6-----------13----13-11-11-------16-16-13-13-13-11-11-11-11-8-8-8
G----7-------------------7----------------------------8-------------------------------------
D--8-------------------8--------------------------------------------------------------------
A-------------------------------------------------------------------------------------------
E-------------------------------------------------------------------------------------------

Solo:

e-------------------6-8-6--------------------------------------------11----------------------
B--9-8-8-6-6-4-4-4--------8-9-8-9-10--8-9-9-11-9-8------8---------11----13-11-13-11----11-11-
G---------------------------------------------------10----8-10-13-------------------12-------
D--------------------------------------------------------------------------------------------
A--------------------------------------------------------------------------------------------
E--------------------------------------------------------------------------------------------

                                                             Finale (Fading out):

e---------------------11----11-13-15-16-18--------------------------11---------------------------
B--11--11-11-11-11-11----13-------------------9-8-6-8-8-6--4-----11----13-11----11---------------
G----------------------------------------------------------------------------12----13-12-10-12---
D---------------------------------------------6-5-3-5-5-3--1-------------------------------------
A------------------------------------------------------------------------------------------------
E------------------------------------------------------------------------------------------------

e------------------------------------------------------------------------------------------------
B--------8-9-11-11----------------------------------------------------9-9-9-8-8--9--8-9--9--8----
G--8-8-8-----------8-8-10-8-8----------------------------------------------------10-8-10-10-8----
D------------------------------10-8---------5-6-8-8-----------------8----------------------------
A---------------------------------------6-8---------8-10-6-8-6-8-10------------------------------
E------------------------------------11----------------------------------------------------------

e--------------------8-6--11-13-15------
B-9--9---8-8-------6--------------------
G-10-10--8-8-----7----------------------
D--------------8------------------------
A---------------------------------------
E---------------------------------------

Comments