Waite John - Missing You Chords & Tabs

 

Missing You Chords & Tabs

Waite John Chords & Tabs

Version: 1 Type: Bass Tab 0 ratings
1 star 2 stars 3 stars 4 stars 5 stars
comments

Missing You Bass Tab

JOHN WAITE - "Missing You" - Bass Tab

Common Time(4/4)
Standard Tuning(EADG)

INTRO:
|-----|------------------|-----------------|-----------------|
|-----|*-----------------|-----------------|-----------------|
|-----|*-----------------|-----------------|-2-2-2-2-2-2-2-2-|
|-r-r-|--2-2-2-2-2-2-2-2-|-2-2-2-2-2-2-2-2-|-----------------|
  3 4    1 & 2 & 3 & 4 &   1 & 2 & 3 & 4 &   1 & 2 & 3 & 4 &

|------------------|
|-----------------*|
|-4-4-4-4-4-4-4-4-*| (x2)
|------------------|
  1 & 2 & 3 & 4 &

1ST VERSE:
|------------------|-----------------|-----------------|
|*-----------------|-----------------|-----------------|
|*-----------------|-----------------|-2-2-2-2-2-2-2-2-|
|--2-2-2-2-2-2-2-2-|-2-2-2-2-2-2-2-2-|-----------------|
   1 & 2 & 3 & 4 &   1 & 2 & 3 & 4 &   1 & 2 & 3 & 4 &

               (x2)
|------------------|-----------------|-----------------|
|-----------------*|-1-1-1-1-1-1-1-1-|-1-1-1-1-1-1-1-1-|
|-4-4-4-4-4-4-4-4-*|-----------------|-----------------|
|------------------|-----------------|-----------------|
  1 & 2 & 3 & 4 &    1 & 2 & 3 & 4 &   1 & 2 & 3 & 4 &

|-----------------|-----------------|
|-----------------|-----------------| (x2)
|-2-2-2-2-2-2-2-2-|-4-4-4-4-4-4-4-4-|   
|-----------------|-----------------|
  1 & 2 & 3 & 4 &   1 & 2 & 3 & 4 &


1ST CHORUS:
|------------------|-----------------|-----------------|
|*-----------------|-----------------|-----------------|
|*-----------------|-----------------|-2-2-2-2-2-2-2-2-|
|--2-2-2-2-2-2-2-2-|-2-2-2-2-2-2-2-2-|-----------------|
   1 & 2 & 3 & 4 &   1 & 2 & 3 & 4 &   1 & 2 & 3 & 4 &

|------------------|
|-----------------*|
|-4-4-4-4-4-4-4-4-*| (x2)
|------------------|
  1 & 2 & 3 & 4 &

2ND VERSE:
|------------------|-----------------|-----------------|
|*-----------------|-----------------|-----------------|
|*-----------------|-----------------|-2-2-2-2-2-2-2-2-|
|--2-2-2-2-2-2-2-2-|-2-2-2-2-2-2-2-2-|-----------------|
   1 & 2 & 3 & 4 &   1 & 2 & 3 & 4 &   1 & 2 & 3 & 4 &
[ Tab from: http://www.guitartabs.cc/tabs/w/waite_john/missing_you_btab.html ]
               (x3)
|------------------|-----------------|-----------------|
|-----------------*|-1-1-1-1-1-1-1-1-|-1-1-1-1-1-1-1-1-|
|-4-4-4-4-4-4-4-4-*|-----------------|-----------------|
|------------------|-----------------|-----------------|
  1 & 2 & 3 & 4 &    1 & 2 & 3 & 4 &   1 & 2 & 3 & 4 &

|-----------------|-----------------|
|-----------------|-----------------| 
|-2-2-2-2-2-2-2-2-|-4-4-4-4-4-4-4-4-|   
|-----------------|-----------------|
  1 & 2 & 3 & 4 &   1 & 2 & 3 & 4 &

2ND CHORUS:
|------------------|-----------------|-----------------|
|*-----------------|-----------------|-----------------|
|*-----------------|-----------------|-2-2-2-2-2-2-2-2-|
|--2-2-2-2-2-2-2-2-|-2-2-2-2-2-2-2-2-|-----------------|
   1 & 2 & 3 & 4 &   1 & 2 & 3 & 4 &   1 & 2 & 3 & 4 &

               (x2)
|------------------|-----------------|-----------------|
|-----------------*|-1-1-1-1-1-1-1-1-|-1-1-1-1-1-1-1-1-|
|-4-4-4-4-4-4-4-4-*|-----------------|-----------------|
|------------------|-----------------|-----------------|
  1 & 2 & 3 & 4 &    1 & 2 & 3 & 4 &   1 & 2 & 3 & 4 &

|-----------------|-----------------|-----------------|
|-----------------|-----------------|-----------------|
|-2-2-2-2-2-2-2-2-|-4-4-4-4-4-4-4-4-|-----------------|
|-----------------|-----------------|-4-4-4-4-4-4-4-4-|
  1 & 2 & 3 & 4 &   1 & 2 & 3 & 4 &   1 & 2 & 3 & 4 &

|-----------------|-----------------|-----------------|
|-----------------|-----------------|-----------------|
|-----------------|-2-2-2-2-2-2-2-2-|-4-4-4-4-4-4-4-4-|
|-4-4-4-4-4-4-4-4-|-----------------|-----------------|
  1 & 2 & 3 & 4 &   1 & 2 & 3 & 4 &   1 & 2 & 3 & 4 &


END:
|------------------|-----------------|-----------------|
|*-----------------|-----------------|-----------------|
|*-----------------|-----------------|-2-2-2-2-2-2-2-2-|
|--2-2-2-2-2-2-2-2-|-2-2-2-2-2-2-2-2-|-----------------|
   1 & 2 & 3 & 4 &   1 & 2 & 3 & 4 &   1 & 2 & 3 & 4 &

               (x4)
|------------------|-----------------|-----------------|
|-----------------*|-1-1-1-1-1-1-1-1-|-1-1-1-1-1-1-1-1-|
|-4-4-4-4-4-4-4-4-*|-----------------|-----------------|
|------------------|-----------------|-----------------|
  1 & 2 & 3 & 4 &    1 & 2 & 3 & 4 &   1 & 2 & 3 & 4 &

|-----------------|-----------------|
|-----------------|-----------------| 
|-2-2-2-2-2-2-2-2-|-4-4-4-4-4-4-4-4-|   
|-----------------|-----------------|
  1 & 2 & 3 & 4 &   1 & 2 & 3 & 4 &


By: Johari Taylor
E-mail: viking@powerup.com.au
More Bass Tabs: http://www.powerup.com.au/~viking/basstab.htm


Comments