Vulgaires Machins - Triple Meurtre Et Suicide Rate Chords & Tabs

 

Triple Meurtre Et Suicide Rate Chords & Tabs

Vulgaires Machins Chords & Tabs

Version: 1 Type: Tab 0 ratings
1 star 2 stars 3 stars 4 stars 5 stars
comments

Triple Meurtre Et Suicide Rate Tab

   
Titre         : Triple meurtre et suicide raté
Artiste       : Vulgaires Machins
Album         : Aimer le mal
Transcrit par : Alex Viau

Le premier riff est muté pas mal tout le temps les deux premières fois,
ensuite, les 3e et 4 e fois, il n'y a que le Dm de muté.
Après c'est le refrain et pour le couplet suivant c'est les mêmes accords
qu'au début (5e et 6e fois), mais il ne faut les jouer qu'une seule fois 
et les laisser sonner. Après, les 7e et 8e fois sont jouées commes les
3e et 4e fois. Ensuite, c'est le refrain de nouveau...
Ça peut parraître compliqué dis de cette façon mais vous n'avez qu'à 
écouter la chanson et ce sera plus clair...


Riff 1 (Clean et muté la plupart du temps)
("Gossez" sur chaque accord le temps d'une mesure)
[ Tab from: http://www.guitartabs.cc/tabs/v/vulgaires_machins/triple_meurtre_et_suicide_rate_tab.html ]
              C   A   Dm  Dm  Em  Em  Dm  Dm  C
e|------------3---5---5---5---7---7---5---5---3-----------------------------------------|
B|------------5---5---6---6---8---8---6---6---5-----------------------------------------|
G|------------5---6---7---7---9---9---7---7---5-----------------------------------------|
D|------------5---7---7---7---9---9---7---7---5-----------------------------------------|
A|-------3----3---7---5---5---7---7---5---5---3-----------------------------------------|
E|-2-4-6----------5---------------------------------------------------------------------|


Refrain (avec distorsion)  2x
      C5         E5         D5         C5
e|--------------------------------------------------------------------------------------|
B|--------------------------------------------------------------------------------------|
G|----5----------9----------7----------5------------------------------------------------|
D|----5-(16x?)---9-(16x?)---7-(16x?)---5-(8x)-------------------------------------------|
A|----3----------7----------5----------3------------------------------------------------|
E|--------------------------------------------------------------------------------------|

Ensuite, pour passer au couplet suivant y'a le slide suivant (je crois) (clean)

D|--------4/10/14-----------------------------------------------------------------------|

Et puis, vous faites les mêmes accords que pour le premier couplet en les laissant sonner
pour les deuix premières fois.

Ensuite, c'est le refrain de nouveau et c'est fini...


Pour question ou commentaires : kolero@hotmail.com
Comments