Vulgaires Machins - La Ballade Des Egoistes Chords & Tabs

 

La Ballade Des Egoistes Chords & Tabs

Vulgaires Machins Chords & Tabs

Version: 1 Type: Bass Tab 0 ratings
1 star 2 stars 3 stars 4 stars 5 stars
comments

La Ballade Des Egoistes Bass Tab

La ballade des égoïstes
des Vulgaires Machins
pour la bass
tabber pas JF 


Les notes sont pas mal correctes, pour le rythme, écoute la toune.
j'ai mis des barres de reprise, mais pas le nombre de fois qui faut les jouer.
A partir du bout plus heavy pis le "solo", le nombre de fois que tu joues une note
est peut-être pas bon.



G||--------------||-----------------------------------------||
D||o------------o||o---------------5-5-6-6-6-6-6-8-8-8-8-8-o||
A||o-3-6--------o||o-3-3-3-3-3-6-6-------------------------o||
E||------3-4-6---||-----------------------------------------||


G||-----------------------------------------||---------------------------------|
D||o---------------------------------------o||---------------------------------|
A||o-3-3-3-3-3-6-6-------------------------o||-----------------1-1-1-1-2-2-2-2-|
E||----------------6-6-4-4-4-4-4-3-3-3-3-3--||-1-1-1-1-4-4-4-4-----------------|

[ Tab from: http://www.guitartabs.cc/tabs/v/vulgaires_machins/la_ballade_des_egoistes_btab.html ]
G||-------------------||-------------------|---------------|
D||o-----------------o||-------------------|---------------|
A||o-----1-2-1---1---o||-----1-2-1---1-2-3-|-3-3-3-3-3--/6-|
E||--1-4-------4---4--||-1-4-------4-------|---------------|


G|---------------------------------------||-------------------------------------------||
D|---------------5-5-6-6-6-6-6-8-8-8-8-8-||o---------------------------------5-5-----o||
A|-3-3-3-3-3-6-6-------------------------||o-3-3-3-3-3-3-6-6---------------------5-5-o||
E|---------------------------------------||------------------6-6-4-4-4-4-4-4----------||


G||-----------------------------------------||
D||o---------------5-5-6-6-6-6-6-8-8-8-8-8-o||
A||o-3-3-3-3-3-6-6-------------------------o||
E||-----------------------------------------||


G|---------------------------------------------------|-----|
D|---------------------------------------------------|-----|
A|-------------------------1-1-1-1-1-1-2-2-2-2-2-2-3-|-2-3-|
E|-1-1-1-1-1-1-4-4-4-4-4-4---------------------------|-----|

Comments