Vulgaires Machins - Faut Pas S Leurrer Chords & Tabs

 

Faut Pas S Leurrer Chords & Tabs

Vulgaires Machins Chords & Tabs

Version: 1 Type: Bass Tab 0 ratings
1 star 2 stars 3 stars 4 stars 5 stars
comments

Faut Pas S Leurrer Bass Tab

Faut pas s'leurrer
des Vulgaires Machins
pour la bass
tabber par JF 


Les notes sont pas mal correctes, pour le rythme, ├ęcoute la toune.
j'ai mis des barres de reprise, mais pas le nombre de fois qui faut les jouer.



G||----------------||-----------------------------------||---------------------------------||
D||o--------------o||o---------------------------------o||o-------------------------5-3---o||
A||o-5-5/8-8\3----o||o-5-7-8-7-3-7-8-7-3-5-3-5-----0-3-o||o-5-5-5-5/8-8-8-8\3-3-3-3-----7-o||
E||------------\3--||--------------------------3-3------||---------------------------------||


G||-----------------------------------||---------------------------------||
D||o---------------------------------o||o-------------------------5-3---o||
A||o-5-7-8-7-3-7-8-7-3-5-3-5-----0-3-o||o-5-5-5-5/8-8-8-8\3-3-3-3-----7-o||
E||--------------------------3-3------||---------------------------------||

[ Tab from: http://www.guitartabs.cc/tabs/v/vulgaires_machins/faut_pas_s_leurrer_btab.html ]
G|---------5-5-5-5-3-3-3-3-5-5-5-5---------5-5-5-5-3-||---------------------------------||
D|-3-3-3-3-------------------------3-3-3-3-----------||o-------------------------5-3---o||
A|---------------------------------------------------||o-5-5-5-5/8-8-8-8\3-3-3-3-----7-o||
E|---------------------------------------------------||---------------------------------||


G||---------------------------||-----------------------------------||
D||o---------------5-5-5-3---o||o---------------------------------o||
A||o-5-5-5-5h7-8-3---------7-o||o-5-7-8-7-3-7-8-7-3-5-3-5-----0-3-o||
E||---------------------------||--------------------------3-3------||


G||---------------------------------||---------5-5-5-5-3-3-3-3-5-5-5-5---------5-5-5-5-3-|
D||o-------------------------5-3---o||-3-3-3-3-------------------------3-3-3-3-----------|
A||o-5-5-5-5/8-8-8-8\3-3-3-3-----7-o||---------------------------------------------------|
E||---------------------------------||---------------------------------------------------|

Comments