Vulgaires Machins - Chanson A Vendre Chords & Tabs

 

Chanson A Vendre Chords & Tabs

Vulgaires Machins Chords & Tabs

Version: 1 Type: Tab 0 ratings
1 star 2 stars 3 stars 4 stars 5 stars
comments

Chanson A Vendre Tab

Song title    : Chanson à Vendre
Artist        : Vulgaires Machins
Album         : 24:40
Transcrit par : Homer
(De beaucoup inspiré de la version de M-A Moisan incluse à la fin de la mienne)


Intro (Distorded) (2x)

e|--------------------------------------------------------------------------------------|
B|--------------------------------------------------------------------------------------|
G|--------------------------------------------------------------------------------------|
D|--------------------------------------------------------------------------------------|
A|------------7-7-10-10-9-9-6-6---------7-7-6-6-7-7---------------7-7-10-10-------------|
E|--8-8-10-10-------------------9-9-7-7-------------7-7-8-8-10-10-----------------------|



Riff 1

  Gtr 1 (Clean)

e|--------------------------------------------------------------------------------------|
B|--------------------------------------------------------------------------------------|
G|-5----------4-------------------5---------5----------4-------------------5------------|
D|-5----------4---------2---------5---------5----------4---------2---------5------------|
A|-3----------2---------2---------3---------3----------2---------2---------3------------|
E|--------------------------------------------------------------------------------------|
 |                                                                                      |
 |Gtr 2 (Distorded)                                                                     |
 |                                                                                      |
e|--------------------------------------------------------------------------------------|
B|--------------------------------------------------------------------------------------|
G|-555555555--44444444------------55555555--555555555--44444444------------55555555-----|
D|-555555555--44444444--22222222--55555555--555555555--44444444--22222222--55555555-----|
A|-333333333--22222222--22222222--33333333--333333333--22222222--22222222--33333333-----|
E|--------------------------------------------------------------------------------------|
  (__________________________________ P. M. _______________________________________)



  Gtr 2 (Distorded)

e|--------------------------------------------------------------------------------------|
B|--------------------------------------------------------------------------------------|
G|--------------------------------------------------------------------------------------|
D|--44444444----------------------------------------------------------------------------|
A|--44444444----------------------------------------------------------------------------|
E|--22222222----------------------------------------------------------------------------|



''Bridge''

  Gtr 1 (Distorded)

e|--------------------------------------------------------------------------------------|
B|----5-----3-----4-----0------0-1-0-1\5------------------------------------------------|
G|--------------------------------------------------------------------------------------|
D|--------------------------------------------------------------------------------------|
A|--------------------------------------------------------------------------------------|
E|--------------------------------------------------------------------------------------|
 |                                                                                      |
 |Gtr 2 (Distorded)                                                                     |
 |                                                                                      |
e|--------------------------------------------------------------------------------------|
B|--------------------------------------------------------------------------------------|
G|----5-----4-----5-----4------5\9------------------------------------------------------|
D|----5-----4-----5-----4------5\9------------------------------------------------------|
A|----3-----2-----3-----2------3\7------------------------------------------------------|
E|--------------------------------------------------------------------------------------|


[ Tab from: http://www.guitartabs.cc/tabs/v/vulgaires_machins/chanson_a_vendre_tab.html ]
''Bout du milieu''  (Distorded) (4x)
  (Il s'agit des mêmes notes que dans l'intro mais un octave plus haut)
e|--------------------------------------------------------------------------------------|
B|----------5-5-8-8-7-7-4-4---------5-5-4-4-5-5-------------5-5-8-8---------------------|
G|--5-5-7-7-----------------6-6-4-4-------------4-4-5-5-7-7-----------------------------|
D|--------------------------------------------------------------------------------------|
A|--------------------------------------------------------------------------------------|
E|--------------------------------------------------------------------------------------|



  Ending

e|--------------------------------------------------------------------------------------|
B|--------------------------------------------------------------------------------------|
G|----5-----4-----5-----4------5-------------9------------------------------------------|
D|----5-----4-----5-----4------5-------------9------------------------------------------|
A|----3-----2-----3-----2------3-------------7------------------------------------------|
E|--------------------------------------------------------------------------------------|


C'est la toune en gros. Pour les petits changements du genre qu'il y a une seule guitare 
et que j'en ai écrit deux ou que les deux jouent la même chose et que j'ai indiqué 2 riffs 
différents, vous devriez être en mesure de faire les changements appropriés en écoutant la
chanson.

Pour des questions ou commentaires : kolero@hotmail.com
------------------------------------------------------------------------------------------
------------------------------------------------------------------------------------------
------------------------------------------------------------------------------------------

Version de M-A Moisan :
-----------------------

Chanson à Vendre
des Vulgaires Machins
pour guit
tabbler par M-A Moisan
email: bestmarc2000@hotmail.com

Intro (2x)
e-|-----------------------------------------------------------------------------|
B-|-----------------------------------------------------------------------------|
G-|-----------------------------------------------------------------------------|
D-|-----------------------------------------------------------------------------|
A-|------------7-7-10-10-9-9-7-7-6-6-----7-7-6-6-7-7---------------------10-10--|
E-|--8-8-10-10-----------------------7-7-------------7-7-8-8-10-10-12-12--------|

Les couplets ce font avec ces trois accords là: (les accords sont "muter" la 
plupart du temps)
e-|-----------|
B-|-----------|
G-|--5--4-----|
D-|--5--4--2--|
A-|--3--2--2--|
E-|-----------| (pour le beat et le nbr de coup de pick écouter la toune)

Entre le premier et le couplet le "bridge" resemble à ça:

(2x)
e-|---------------|
B-|---------------|
G-|---------------|
D-|---------------|
A-|--3-2-3-2-3/7--|
E-|---------------|

Le couplet...

Le "bridge" qui suit fait:

(2x)
e-|-----------------|
B-|-----------------|
G-|--5--4--5--4--9--|
D-|--5--4--5--4--9--|
A-|--3--2--3--2--7--|
E-|-----------------|

Après c'est le couplet avec les accords du couplet.

Ensuite c'est le "bridge":

(2x)
e-|-----------------|
B-|-----------------|
G-|--5--4--5--4--9--|
D-|--5--4--5--4--9--|
A-|--3--2--3--2--7--|
E-|-----------------|

Suivit du "Bridge":

(2x)
e-|---------------|
B-|---------------|
G-|---------------|
D-|---------------|
A-|--3-2-3-2-3/7--|
E-|---------------|

Suivit du riff suivant:

(4x)
e-|-----------------------------------------------------------------------------|
B-|-----------------------------------------------------------------------------|
G-|-----------------------------------------------------------------------------|
D-|-----------------------------------------------------------------------------|
A-|------------7-7-10-10-9-9-7-7-6-6-----7-7-6-6-7-7---------------------10-10--|
E-|--8-8-10-10-----------------------7-7-------------7-7-8-8-10-10-12-12--------|

Après c'est le couplet avec les accords du couplet...

Ensuite c'est:

(4x)
e-|-----------------|
B-|-----------------|
G-|--5--4--5--4--9--|
D-|--5--4--5--4--9--|
A-|--3--2--3--2--7--|
E-|-----------------|

Fin
Comments