Vulgaires Machins - Capital Chords & Tabs

 

Capital Chords & Tabs

Vulgaires Machins Chords & Tabs

Version: 1 Type: Tab 0 ratings
1 star 2 stars 3 stars 4 stars 5 stars
comments

Capital Tab

Intro
                      (            barre de reprise               )
e|--------------------| ------------------------------------------ |
b|--------------------| ------------------------------------------ |
g|--------------------|.-----------------------9-------11-----9-9-.|
d|----9----9----9----9| ----9----9----9----9---9-11--9-11-11--9-9- |
a|--77---77---77---77-|.--77---77---77---77----7-11--9--9-11--7-7-.|
E|--------------------| --------------------------9--7-----9------ |

e|----------------|--------------------------------------------|
b|----------------|--12----9----12---12----12----9----12---12--|
g|-------11-----9-|-9--9-10-10-9--9-8---8-9--9-10-10-9--9-8----|
d|-11--9-11-11--9-|--------------------------------------------|
a|-11--9--9-11--7-|--------------------------------------------|
E|--9--7-----9----|--------------------------------------------|

BASS RIFF

  promenade en avion, douze pièces a l'étage
e|-----------------------------------|
b|(laisser sonner chaque note)-------|
g|--9--------------------------------|
d|--9---------11----10--------------9|
a|--7---------11----10--------------9|
E|-------------9-----8--------------7|


  cigar de cuba et papier cul en poil de lama...CAPITAL...c'qu'on sait pas....
e|--------------------------------------------|--------------------|
b|--------------------------------------------|--------------------|
g|--9-----------------------------------------|--------9-----------|
d|--9-x4-11------10------9--------------------|--6-----9-11--9-----|
a|--7----11-x4---10-x4---9-x4---------X4------|--6-x8--7-11--9-x16-|
E|--------9-------8------7--------------------|--4--------9--7-----|

BASS RIFf


Bateau au chalet, Ça put trop en ville
e|-----------------------------------|
b|(laisser sonner chaque note)-------|
g|--9--------------------------------|
d|--9---------11----10--------------9|
a|--7---------11----10--------------9|
E|-------------9-----8--------------7|

[ Tab from: http://www.guitartabs.cc/tabs/v/vulgaires_machins/capital_tab.html ]
  boucher de caviar, bais d'lait, champagne...CAPITAL............
e|--------------------------------------------|--------------------|
b|--------------------------------------------|--------------------|
g|--9-----------------------------------------|--------9-----------|
d|--9-x4-11------10------9--------------------|--6-----9-11--9-----|
a|--7----11-x4---10-x4---9-x4---------X4------|--6-x8--7-11--9-x16-|
E|--------9-------8------7--------------------|--4--------9--7-----|
          oublie la......                  CAPITAL
e|---------------------------------------|-------------------|
b|------|--9-----8-----7-----6-----------|-------------------|
g|--9---|--9-----8-----7-----6-----------|-------9-----------|
d|--9-11|--9-x16-8-x16-7-x16-6-x16----X2-|--6----9--11--9----|
a|--7-11|--7-----6-----5-----4-----------|--6-x8-7--11--9-x8-|
E|-----9|--------------------------------|--4--------9--7----|

Intro

BASS RIFF

   avion en carton, grand-pere...
e|-----------------------------------|
b|(laisser sonner chaque note)-------|
g|--9--------------------------------|
d|--9---------11----10--------------9|
a|--7---------11----10--------------9|
E|-------------9-----8--------------7|


  
e|--------------------------------------------|--------------------|
b|--------------------------------------------|--------------------|
g|--9-----------------------------------------|--------9-----------|
d|--9-x4-11------10------9--------------------|--6-----9-11--9-----|
a|--7----11-x4---10-x4---9-x4---------X4------|--6-x8--7-11--9-x16-|
E|--------9-------8------7--------------------|--4--------9--7-----|

e|------------------------|
b|------------------------|
g|--9------------9--------|
d|--9--11--6-----9--11--9-|
a|--7--11--6-x8--7--11--9-|
E|------9--4---------9--7-|
                                            CAPITAL
e|---------------------------------------|------|
b|------|--9-----8-----7-----6-----------|------|
g|--9---|--9-----8-----7-----6-----------|------|
d|--9-11|--9-x16-8-x16-7-x16-6-x16----X2-|--6---|
a|--7-11|--7-----6-----5-----4-----------|--6-x8|
E|-----9|--------------------------------|--4---|

Sa ressemble pas mal a sa! sa se peut qu'il y ai des erreurs 
si le couplet son pas ordre ou les refrain sa se peut aussi je suis pas mal
fatiguer de ce temps si mais vous avez toutes les notes pour trouver la tune si
yen manque

question ou comentaire??    dr_canabis101@hotmail.com
Comments