Vst And Co - Ipagpatawad Mo Chords & Tabs

 

Ipagpatawad Mo Chords & Tabs

Vst And Co Chords & Tabs

Version: 2 Type: Tab

Ipagpatawad Mo Tab

intro:

e--12-14------------------------------------------------|
B--------14-12------------------------------------------|
G--------------14---11v---------------------------------|
D---------------------------------6---9---9---9---6-7v--|
A-----------------------------7-9-----------------------|
E-------------------------------------------------------|


e--12-14-------------------------------------------------|
B--------14-12-------------------------------------------|
G--------------14---11v---------------------------9------|
D---------------------------------6---9---9---9-----7v---|
A-----------------------------7-9------------------------|
E--------------------------------------------------------|

eto naman solo...
[ Tab from: http://www.guitartabs.cc/tabs/v/vst_and_co/ipagpatawad_mo_tab_ver_2.html ]
e--------------------------------------------------------------|
B--12---12------15-------13---12--------12---------------------|
G------------14--------------------14--------------------------|
D--------------------------------------------14---12---14-12v--|
A--------------------------------------------------------------|
E--------------------------------------------------------------|

e--------------------------------------------------------------|
B--12---12------15-------13---12--------12---12---12---13-12v--|
G------------14--------------------14--------------------------|
D--------------------------------------------------------------|
A--------------------------------------------------------------|
E--------------------------------------------------------------|

yan lang, diko alam yung chords e...
para yan kay wendy r. from nix...
paki rate... thanks