Voodoo Hussy - Code Red Chords & Tabs

 

Code Red Chords & Tabs

Voodoo Hussy Chords & Tabs

Version: 1 Type: Bass Tab

Code Red Bass Tab

version 1

G|---------------------------------------------------------------------|
D|-0-7-5-3-----------0-7-5-3-------------------------------------------|
A|-------------5-7----------------5-7/---------------------------------|
E|---------------------------------------------------------------------|

can be moved around to most places on the bass, works well on 12th instead of 7th fret.


version 2
[ Tab from: http://www.guitartabs.cc/tabs/v/voodoo_hussy/code_red_btab.html ]
G|----------------------------------------------------------------------|
D|-0-11-10-7-6----------0-11-10-7-6-------------------------------------|
A|--------------9-11----------------9-11/-------------------------------|
E|----------------------------------------------------------------------|

version 3

version 1

G|-----------------------------------------------------------------------|
D|-0-11-10------------ 0-11-10-------------------------------------------|
A|---------11-10-8-10-------------11-10-8-10/----------------------------|
E|-----------------------------------------------------------------------|

fairly sure version 3 is how Naj plays it...