Voodoo Glow Skulls - Steady As She Goes Chords & Tabs

 

Steady As She Goes Chords & Tabs

Voodoo Glow Skulls Chords & Tabs

Version: 1 Type: Tab 0 ratings
1 star 2 stars 3 stars 4 stars 5 stars
comments

Steady As She Goes Tab

----------------------------------------------------------------------
STEADY AS SHE GOES   -   Voodoo Glow Skulls
----------------------------------------------------------------------

By: AFI_Phoenix@hotmail.com (Daniel Behrman)       Any questions, concerns, comments?

Intro
E|-----------------------------------------------------------------------------------------------------------------|
B|-----------------------------------------------------------------------------------------------------------------|
G|------------------------5-----------------------------------------------------5----------------------|
D|--5----8---5---3-----5-----------------5----8--5---3---------5----8---5---3---5--------5---8---5---|    X2
A|--5----8---5---3-----3-----------------5----8--5---3---------5----8---5---3---3--------5---8---5---|
E|--3----6---3---1-----------------------3----6--3---1---------3----6---3---1------------3---6---3---|

Verse
Ska Chords With Distortion
E|-3-3-3-3-3-3-3---5-5----3-3-3-3-3-3-3---6-6--5-5---3-3-3-3-3-3-3---5-5---3-3-3-3-3-3-3-|
B|-3-3-3-3-3-3-3---5-5----3-3-3-3-3-3-3---6-6--5-5---3-3-3-3-3-3-3---5-5---3-3-3-3-3-3-3-|
G|-------------------------------------------------------------------------------------------------------------------|    X2
D|-------------------------------------------------------------------------------------------------------------------|
A|-------------------------------------------------------------------------------------------------------------------|
E|-------------------------------------------------------------------------------------------------------------------|

Pre-Chorus
E|--------------------------|
B|--------------------------|
G|--------------------------|
D|--10---13---|-5-|-------|   X4 (Play |-5-|   with palm muting on the last time)
A|--10---13---|-5-|-------|            |-5-|
E|--8----11---|-3-|-------|            |-3-|
[ Tab from: http://www.guitartabs.cc/tabs/v/voodoo_glow_skulls/steady_as_she_goes_tab.html ]
Chorus
E|-----------------------------------------------------------------------------------------------------------------|
B|-----------------------------------------------------------------------------------------------------------------|
G|---------------------5--------------------------------------------------------5----------------------|
D|--5----8---5---3-----5-----------------5----8--5---3---------5----8---5---3---5--------5---8---5---|    X2
A|--5----8---5---3-----3-----------------5----8--5---3---------5----8---5---3---3--------5---8---5---|
E|--3----6---3---1-----------------------3----6--3---1---------3----6---3---1------------3---6---3---|

Verse
Ska Chords With Distortion
E|-3-3-3-3-3-3-3---5-5----3-3-3-3-3-3-3---6-6--5-5---3-3-3-3-3-3-3---5-5---3-3-3-3-3-3-3-|
B|-3-3-3-3-3-3-3---5-5----3-3-3-3-3-3-3---6-6--5-5---3-3-3-3-3-3-3---5-5---3-3-3-3-3-3-3-|
G|-------------------------------------------------------------------------------------------------------------------|
D|-------------------------------------------------------------------------------------------------------------------|
A|-------------------------------------------------------------------------------------------------------------------|
E|-------------------------------------------------------------------------------------------------------------------|

Followed by 2 notes constantly picked
E|-15-X6--------------|
B|-------------15 X6--|
G|-----------------------|
D|-----------------------|
A|-----------------------|
E|-----------------------|

Chorus
E|-----------------------------------------------------------------------------------------------------------------|
B|-----------------------------------------------------------------------------------------------------------------|
G|---------------------5--------------------------------------------------------5----------------------|
D|--5----8---5---3-----5-----------------5----8--5---3---------5----8---5---3---5--------5---8---5---|    X2
A|--5----8---5---3-----3-----------------5----8--5---3---------5----8---5---3---3--------5---8---5---|
E|--3----6---3---1-----------------------3----6--3---1---- ----3----6---3---1------------3---6---3---|
Comments