Voodoo Glow Skulls - Silencer Chords & Tabs

 

Silencer Chords & Tabs

Voodoo Glow Skulls Chords & Tabs

Version: 1 Type: Bass Tab 0 ratings
1 star 2 stars 3 stars 4 stars 5 stars
comments

Silencer Bass Tab

   
------------------------------------------------------------------------------------------
			         Silencer - VooDoo Glow Skulls
------------------------------------------------------------------------------------------

Tabbed By : Jason
e-mail: loh3005@yahoo.com            feeedback is appreciated this is my first tab

Tuning:EADG
introduction and verse 1
G|-----------------------------------------------------------------------------|
D|---------------2-------------------------------------------------------------|
A|-0-3-2----3----2-3-0-------3-2--0-1-2----------------------------------------|
E|---------3----------------3-1------------------------------------------------|

verse 2
G|-----------------------------------------------------------------------------|
D|--------------2--------------------------------------------------------------|
A|-0-3-2---3----2-3-0----------3-2--0-0-1-1-2-2--------------------------------|
E|---------3---------------3-1-1-----------------------------------------------|

chorus
G|-----------------------------------------------------------------------------|
D|-----------------------------------------------------------------------------|
A|-4------2-4-------2-4-------2---------2--------------------------------------|
E|---5-4-------5-4-------5-4----4-2-4------------------------------------------|

verse 3
G|-----------------------------------------------------------------------------|
D|-------------------------------------1-1-3-3-4-4-4-4-4-4-4-4-----------------|
A|---2-2-2-2-2-2-2-2-2-2-2-2---------------------------------------------------|
E|-----------------------------------------------------------------------------|
[ Tab from: http://www.guitartabs.cc/tabs/v/voodoo_glow_skulls/silencer_btab.html ]
G|-----------------------------------------------------------------------------|
D|-----------------------------------------------------------------------------|
A|-1-1-1-1-1-1-1-1--------------------------------------1-1-3-3----------------|
E|--------------------------2-2-2-2-2-2-2-2-2-2-2-2----------------------------|

G|---------------------------------------------------------------------------------|
D|-1-1-1-1-1-1-1-1-----------------------------------------------------------------|
A|---------------------------------------------------------------------------------|
E|-----------------------1-1-1-1-1-1-1-1--2-2-2-2-2-2-2-2-2-2-2-2------------------|

G|-----------------------------------------------------------------------------|
D|-----------------------------------------------------------------------------|
A|-1-1-3-3-4-4-4-4-4-4-4-4-1-1-1-1-1-1-1-1-------------------------------------|
E|-----------------------------------------------------------------------------|

G|-----------------------------------------------------------------------------|
D|-----------------------------------------------------------------------------|
A|------------------------------1-1-3-3-------1--------------------------------|
E|--2-2-2-2-2-2-2-2-2-2-2-2----------------------------------------------------|

verse 4
G|------------------------------------------------------------------------------------|
D|-------------------------0--0--0--0-------------------------------------------------|
A|---1----1----1----1-----------------------------------------------------------------|
E|------3----3----3----3----3--3--3--3-----------0--0--0--0---------------------------|


| /  slide up
| \  slide down
| h  hammer-on
| p  pull-off
| ~  vibrato
| +  harmonic
| x  Mute note
===============================================================================
Comments