Voodoo Glow Skulls - Shoot The Moon Chords & Tabs

 

Shoot The Moon Chords & Tabs

Voodoo Glow Skulls Chords & Tabs

Version: 1 Type: Bass Tab 0 ratings
1 star 2 stars 3 stars 4 stars 5 stars
comments

Shoot The Moon Bass Tab

BAND: THE VOODOO GLOW SKULLS
SONG: SHOOT THE MOON
ALBUM: FIRME
TABBED BY: BEN MEYER benm@oakweb.com


INTRO:
[ Tab from: http://www.guitartabs.cc/tabs/v/voodoo_glow_skulls/shoot_the_moon_btab.html ]
G:------------------------
D:------------------------
A:----7-6-------4-5-5-5-4-
E:-4-------7-7------------


VERSE:

G:-------
D:-------
A:---2-4-
E:-4-----

INSTRUMENTAL:

G:-------------------
D:-2-1---------------
A:------4-2----------
E:-----------4-4-4-4-


THATS A VERY EASY SONG BUT IT SOUNDS REALLY COOL.
Comments