Voodoo Glow Skulls - Malas Palabras Chords & Tabs

 

Malas Palabras Chords & Tabs

Voodoo Glow Skulls Chords & Tabs

Version: 2 Type: Bass Tab 0 ratings
1 star 2 stars 3 stars 4 stars 5 stars
comments

Malas Palabras Bass Tab

Song: Malas Palabras
Band: Voodoo Glow Skulls
Album: Firme
tabbed by: Luis A-S. (topman1@aol.com)

opening riff and verse
G:----------------0--1--33--0----------------------------------
D:-----------1-3-----------------------------------------------
A:----3---3----------------------------------------------------
E:-------------------------------------------------------------

G:-----------------0-------------------------------------------
D:-----------1-3-----3-----------------------------------------
A:----3---3--------------2-------------------------------------
E:-------------------------------------------------------------
pre chorus
G:------------0------------------------------------------------
D:---------1-----1---------------------------------------------  x3
A:------3------------------------------------------------------
E:-------------------------------------------------------------
after pre chorus go right into this
[ Tab from: http://www.guitartabs.cc/tabs/v/voodoo_glow_skulls/malas_palabras_btab_ver_2.html ]
G:---0---------------------------------------------------------
D:-------3--1--------------------------------------------------
A:--------------2--3-------------------------------------------
E:-------------------------------------------------------------
chorus  x2
G:------------------------------------------------------------------------------------
D:--------1-------1----------1---------1----------1----------1-------------1-----
A:----3-----2h3-----0h2------2h3------2h3-------2h3-------0h2--------3----
E:-------------------------------------------------------------------------------------

pre end.
G:---------------------0-00-------------------0----------------------
D:-------------1-11--------------------111-----3------------------------
A:-----3-33----------------------333-----------------------------------
E:---------------------------------------------------------------

G:------------0---------------------------------------------------
D:----------------1-----------------------------------------------
A:----3--2-----------3----------------------------------------------
E:---------------------------------------------------------------
the end of the song after everything fades out is just a variation of these
notes
mess around with this tab and im sure you'll get it right. remember that
the rhythm
is important, especially with this song.
Comments