Voodoo Glow Skulls - Land Of Misfit Toys Chords & Tabs

 

Land Of Misfit Toys Chords & Tabs

Voodoo Glow Skulls Chords & Tabs

Version: 1 Type: Bass Tab 0 ratings
1 star 2 stars 3 stars 4 stars 5 stars
comments

Land Of Misfit Toys Bass Tab

Song: Land of misfits toys ( or Jugetes desajustados )
Band: Voodoo Glow Skulls
Album: Firme
tabbed by: Carlos Pino

intro & verse   x3                              x3
G:--------------4h5h4--¦--------------------------------------------  repeat it
D:-------4--7-------------¦----------------4h5h4------------------
A:----5--------------------¦--------4--7------------------------------
E:--------------------------¦----5-------------------------------------

chorus
G:---------------------------------------------------------------
D:--8--5------8--5------7-6-7-6-7-6-7--------------------
A:----------5---------5-----------------------------------------
E:---------------------------------------------------------------
[ Tab from: http://www.guitartabs.cc/tabs/v/voodoo_glow_skulls/land_of_misfit_toys_btab.html ]
G:---------------------------------------------------------------
D:-8--5------8--5-------7-6-7-6-7-------------------------
A:---------5----------5----------------------------------------
E:---------------------------------------------------------------
(repeat)

bridge                                          x2
G:---------------------------------------------------------------
D:---------------------------------------------------------------
A:--5-----------------------------------------------------------
E:--------6---5-------------------------------------------------

verse
chorus
bridge

outro    x3                       x3
G:-------------¦--------------------------------------------------
D:-------------¦-------4-----7----------------------------------
A:------4--7--¦---5----------------------------------------------
E:--5----------¦--------------------------------------------------
(repeat)
Comments