Voodoo Glow Skulls - Insuburdanation Chords & Tabs

 

Insuburdanation Chords & Tabs

Voodoo Glow Skulls Chords & Tabs

Version: 2 Type: Bass Tab 0 ratings
1 star 2 stars 3 stars 4 stars 5 stars
comments

Insuburdanation Bass Tab

Insuburdanation 
 Voodoo Glow Skulls


Intro
G|--------------------------------------------------------------------|
D|--------------------------------------------------------------------|
A|--------------------------------------------------------------------|
E|--2----5----0-------------------------------------------------------|

[ Tab from: http://www.guitartabs.cc/tabs/v/voodoo_glow_skulls/insuburdanation_btab_ver_2.html ]
Verse
G|--------------------------------------------------------------------|
D|-----------9----------------8---------------------------------------|
A|--7---10-------10---6---9-------9-----------------------------------|
E|--------------------------------------------------------------------|


Bridge
G|--------------------------------------------------------------------|
D|--------------------------------------------------------------------|
A|--3--3--3-----------------------------------------------------------|
E|-----------3--3--3---1--1--1---3--3--3------------------------------|


Ska Breakdown
repeate first part 3x
G|--------------------|-----------------------------------------------|
D|--------------------|-----------------------------------------------|
A|-----------9--------|----12--12-------------------------------------|
E|--7---10-------10---|-----------------------------------------------|
Comments