Voodoo Glow Skulls - Feliz Navidad Chords & Tabs

 

Feliz Navidad Chords & Tabs

Voodoo Glow Skulls Chords & Tabs

Version: 2 Type: Bass Tab 0 ratings
1 star 2 stars 3 stars 4 stars 5 stars
comments

Feliz Navidad Bass Tab

Song: Feliz Navidad
Band: Voodoo glow skulls
Album: Baile de los locos
tabbed by: Carlos Pino

   intro
G:---------------------------------------------------------------
D:---------------------------------------------------------------
A:--5--5--5---------------5-----------------------------------
E:---------------5--5--5---------------------------------------
[ Tab from: http://www.guitartabs.cc/tabs/v/voodoo_glow_skulls/feliz_navidad_btab_ver_2.html ]
    spanish part (I`m not sure if is right)
G:---------------------------------------------------------------
D:-14-14-14-14--7-7-7-7--12-12-12-12--9-9-9-9--
A:---------------------------------------------------------------
E:---------------------------------------------------------------

    english part
G:---------------------------------------------------------------
D:---------------------------------------------------------------
A:-7-7-7-7-7-7-7-7---------------------5-5-5-5-5-5-5-5---------------------
E:----------------------5-5-5-5-5-5-5-5---------------------7-7-7-7-7-7-7-7

    bridge
G:---------------------------------------------------------------
D:---------------------------------------------------------------
A:---------------------------------------------------------------
E:-6-6-6-6-6-6-6-6--8-8-8-8-8-8-8-8--10-10-10-10-10-10-10-10--10-10-10


Comments