Voodoo Glow Skulls - Fat Randy Chords & Tabs

 

Fat Randy Chords & Tabs

Voodoo Glow Skulls Chords & Tabs

Version: 2 Type: Bass Tab 0 ratings
1 star 2 stars 3 stars 4 stars 5 stars
comments

Fat Randy Bass Tab

   
Artist: Voodoo Glow Skulls
Title: Fat Randy
Performed By: Jorge Casillanos
Transcribed By: Andrea Okorley
CD: Firme, Trk.9
Email: descendentsgirl@hotmail.com
[ Tab from: http://www.guitartabs.cc/tabs/v/voodoo_glow_skulls/fat_randy_btab_ver_2.html ]
""=slowly drag or tie it to the next note
Intro:
        E: 3----3--3--1
            3----3--3--1
            3----3--3--1--3/16
1st Verses: (x2)
        G:-----------------------------------------------------------
        D:-----------------------22--------------------------------
        A:--------5----3333-------3-----------2---------------
        E:3333--3--------------------3333-----3--"1"-----
        G:
        D:-----------------------22-----------------------------
        A:--------5---3333--------3-----------2-----------3
        E:3333--3--------------------3333------"1"------
         End With
        Tail 1 for 1st Verses: 
         E: 1
Lead - In:                         
        G                  Chorus: (x4)G:                                
(Tail): G:
        D:                                    D:
D:
        A:6--5                              A:------------5--6--5--6--5
A:6--8
        E:                                    
E:6----6----------------------            E:
~repeat LEAD IN and CHORUS w/TAIL

~repeat 1ST VERSES(x2 again,) this time end w/ TAIL 2:
 
 E:1--1--1--1

Bridge 1: (x3)G:                                             
                     D:
                     A:--------------------------------------3--1
                     E:1--1--1--1--4----3--3--3--3--------
Then Tail w/:G:
                     D:
                     A:--------------------------------------31-
                     E:1--1--1--1--4----3--3--3--3-------
~repeat just 1ST VERSES(meaning w/no tail)(x2), LEAD IN, CHORUS w/TAIL
                  
 These are the two notes played...play as trip. or 16th's...
Then Bridge 2: (x4) A: 3--8

2nd Verses:
         G:
         D:
         A:--------2---------------------5-------------22----
         E:3333--3--"1"----3333--3--3333-----3--
         G:
         D:
         A:--------2-------------3--------5-------------22----
         E:3333--3--"1"------3333--3--3333-----3--
~repeat 2ND BRIDGE(x4), Pause, repeat again (x4), Stop, then do BRIDGE 1 
w/OUT TAIL (x8) 
End Song On:
                     E:1-----1
Comments