Voodoo Glow Skulls - El Cool Cooi Chords & Tabs

 

El Cool Cooi Chords & Tabs

Voodoo Glow Skulls Chords & Tabs

Version: 2 Type: Bass Tab 0 ratings
1 star 2 stars 3 stars 4 stars 5 stars
comments

El Cool Cooi Bass Tab

El Coo Cooi by Voodoo Glow Skulls
Tabbed By Adam Pauly

Verse:
G-----------------|---------------
D-----------------|---------------
A-----2---3-3-2---|-----2---3-3-2-
E-0-4---4-------4-|-0-4---4-------

G-----------------|---------------
D-----------------|---------------
A-----2---3-3-2---|-----2---------
E-0-4---4-------4-|-0-4---4-3-3-2-
[ Tab from: http://www.guitartabs.cc/tabs/v/voodoo_glow_skulls/el_cool_cooi_btab_ver_2.html ]
Pre Chorus?
G-------------------------------------------------
D-------------------------------------------------
A-8-7-8-7-8-7-------------------------------------
E-------------5-5-5-5-5-5-5-5-7-7-7-7-7-7-7-7-7-7-

Chorus:
G-----------------|------------------
D-------------2---|------------------
A---------4-4---4-|---------4-4-4-4--
E-3-3-2-0---------|-3-3-2-0----------

G-----------------|------------------
D-------------2---|------------------
A---------4-4---4-|---------4-4------
E-3-3-2-0---------|-3-3-2-0----------

Post Chorus:

G----------------------------------------
D----------------------------------------
A-----------6-6-6-5------------2-2-2-3---
E-5-5-5-5-5---------3-3-3-3-3------------



Comments