Voodoo Glow Skulls - Drunk Tank Chords & Tabs

 

Drunk Tank Chords & Tabs

Voodoo Glow Skulls Chords & Tabs

Version: 2 Type: Bass Tab 0 ratings
1 star 2 stars 3 stars 4 stars 5 stars
comments

Drunk Tank Bass Tab

Song: Drunk tank (or Celda borrachera)
Band: Voodoo Glow Skulls
Album:  Firme
tabbed by: Carlos Pino

intro                                           x4
G:---------------------------------------------------------------
D:---------------------------------------------------------------
A:-5--8--7--5-5-5-8-7--------------------------------------
E:---------------------------------------------------------------

   chorus                                       x2
G:---------------------------------------------------------------
D:---------------------------------------------------------------
A:--5>-2>--5>-2>-3-4-5----------------------------------
E:---------------------------------------------------------------

verse: same as intro but x8
chorus
verse
[ Tab from: http://www.guitartabs.cc/tabs/v/voodoo_glow_skulls/drunk_tank_btab_ver_2.html ]
bridge
G:---------------------------------------------------------------
D:---------------------------------------------------------------
A:------4-5-4-5-4-3--------5-4-5-4-5---------------------
E:-3-6------------------3-6-----------------------------------

G:---------------------------------------------------------------
D:---------------------------------------------------------------
A:------4-5-4-5-4-3------------------------------------------
E:-3-6-------------------6-1-----------------------------------

repeat the bridge but the second time it end like this
G:---------------------------------------------------------------
D:---------------------------------------------------------------
A:---------3-----------------------------------------------------
E:--6------------------------------------------------------------

don`t know the part when they day '' hey,hey,hey''

verse
chorus

outro
G:--------------------------------------------------------------
D:---------------------------------------------------------------
A:--6-7-8-9-10----------------------------------------------
E:---------------------------------------------------------------




Comments