Voodoo Glow Skulls - Charlie Brown Chords & Tabs

 

Charlie Brown Chords & Tabs

Voodoo Glow Skulls Chords & Tabs

Version: 1 Type: Bass Tab 0 ratings
1 star 2 stars 3 stars 4 stars 5 stars
comments

Charlie Brown Bass Tab

BAND: VOODOO GLOW SKULLS
SONG: CHARLIE BROWN
ALBUM: FIRME
TABBED BY: BEN MEYER benm@oakweb.com


VERSE:

G:------------------------------------------
D:------------------------------------------
A:---------6---------6---------6----------6-
E:-7-7-7-7---7-7-7-7---7-7-7-7---7-7-7-7----


CHORUS:

G:--------------------------------------------------------
D:----6-9-6----6-9-6----------------------8-11-8----6-9-6-
A:-7--------7------------6-9-6---6-9-6--9---------7-------
E:---------------------7-------7--------------------------


PART BEFORE "HEY YOU WHO ME YEAH YOU...":
[ Tab from: http://www.guitartabs.cc/tabs/v/voodoo_glow_skulls/charlie_brown_btab.html ]
G:---------------------------------------
D:---6-9-6----6-9-6------4-7-4-----4-7-4-
A:-7--------7---------5----------5-------
E:---------------------------------------


INSRTUMENTAL:

G:-----------------------------------------------------------------------
D:------6-6-9-9-6-6-----6-6-9-9-6-6--------------------------------------
A:-7-7--------------7-7--------------------6-6-9-9-6-6-------6-6-9-9-6-6-
E:------------------------------------7-7----------------7-7-------------

CONTINUED:

G:------------------------------------
D:-----8-8-11-11-8-8------6-6-9-9-6-6-
A:-9-9---------------7-7--------------
E:------------------------------------
Comments