Vonray - Ill Show You Chords & Tabs

 

Ill Show You Chords & Tabs

Vonray Chords & Tabs

Version: 1 Type: Chords 0 ratings
1 star 2 stars 3 stars 4 stars 5 stars
comments

Ill Show You Chords

   
/***********************Pleasenote******************************/
/* This file is the author’s own work and represents their     */ 
/* interpretation of the song. You may only use this file for  */  
/* private study, scholarship or research                      */
/***************************************************************/


Artist  -  Vonray 
Album   -  Vonray
Song    -  I’ll show you
Tuning  -  Standard

Tabbed by – NUGOR
Email at bing_40@hotmail.com

Hi everyone, I couldn’t find a tab for this song so I thought I’d figure it out.
It’s quite simple so I hope you enjoy it

Listen to the track for the strumming pattern. It’s quite easy and didn’t think
it was worth the time to write out!


Intro and Verse

    G   Cadd2   G   Cadd9   G   Cadd9   D   Dsus2(?) D   Dsus4

E---3-----3-----3-----3-----3-----3-----2-----0------2-----2h3---------
B---3-----3-----3-----3-----3-----3-----3-----3------3-----3-----------
G---0-----0-----0-----0-----0-----0-----2-----2------2-----2-----------
D---0-----2-----0-----2-----0-----2-----0-----0------0-----0-----------
A---2-----3-----2-----3-----2-----3-----0-----0------0-----0-----------
E---3-----0-----3-----0-----3-----0-----0-----0------0-----0-----------



Prechorus – “Why are you hiding….”

       Em7           Cadd9       x2
[ Tab from: http://www.guitartabs.cc/tabs/v/vonray/ill_show_you_crd.html ]
E----3------3------------------------------------------------------
B----3------3------------------------------------------------------
G----0------0------------------------------------------------------
D----2------2------------------------------------------------------
A----2------3------------------------------------------------------
E----0------0------------------------------------------------------


Chorus – “If you would give me a chance….”

     D     Em7   x3

E----2------3------------------------------------------------------
B----3------3------------------------------------------------------
G----2------0------------------------------------------------------
D----0------2------------------------------------------------------
A----0------2------------------------------------------------------
E----0------0------------------------------------------------------
“…to a word you say…”

   Em7    D   Cadd9

E----3----2-----3---------------------------------------------------
B----3----3-----3---------------------------------------------------
G----0----2-----0---------------------------------------------------
D----2----0-----2---------------------------------------------------
A----2----0-----3---------------------------------------------------
E----0----0-----0---------------------------------------------------


That’s pretty much the gist of the song…. If anyone has any
questions/improvements then feel free to email me.
Comments