Vonray - Drinkers Hour Chords & Tabs

 

Drinkers Hour Chords & Tabs

Vonray Chords & Tabs

Version: 1 Type: Tab 0 ratings
1 star 2 stars 3 stars 4 stars 5 stars
comments

Drinkers Hour Tab

   
Intro
                            Asus4   G  C
e|-3--3-2---2--0-------0------------3-------------------------------------|
B|---3----3------3---3---------3----3--1----------------------------------|
G|-----------------2-----------2----0--0----------------------------------|
D|-----------------------------2----0--2----------------------------------|
A|----------------------------------2--3----------------------------------|
E|----------------------------------3-------------------------------------|
[ Tab from: http://www.guitartabs.cc/tabs/v/vonray/drinkers_hour_tab.html ]
Verse/Chorus
   G           D        C9      
e|-3-----------2--------3-------------------------------------------------|
B|-3-----------3--------3-------------------------------------------------|
G|-0-----------2--------0-------------------------------------------------|
D|-0--------------------2-------------------------------------------------|
A|-2--------------------3-------------------------------------------------|
E|-3----------------------------------------------------------------------|

"on the drinkers hour" at the end when he says it alot
   G          D       C9      G
e|-3----------2-------3-------3-------------------------------------------|
B|-3----------3-------3-------3-------------------------------------------|
G|-0----------2-------0-------0-------------------------------------------|
D|-0------------------2-------0-------------------------------------------|
A|-2------------------3-------2-------------------------------------------|
E|-3--------------------------3-------------------------------------------|
Comments