Vonray - Drifted Away Chords & Tabs

 

Drifted Away Chords & Tabs

Vonray Chords & Tabs

Version: 1 Type: Tab 0 ratings
1 star 2 stars 3 stars 4 stars 5 stars
comments

Drifted Away Tab

   
Vonray - Drifted Away
By:Andrew Mcshan(Guitargux182@aol.com)

Intro
e|---2/3-5-7-5-2/3/2/3-4/5/3-2-----------------------------------------------|
B|-0----------------------------2/3/2---------------2/3--0~~~~---------------|
G|-------------------------------------4/7-4-2-------------------------------|
D|---------------------------------------------------------------------------|
A|---------------------------------------------------------------------------|
E|---------------------------------------------------------------------------|

Verse
   D       A     D     G
e|-2-------------2-----3-----------------------------------------------------|
B|-3-------2-----3-----3-----------------------------------------------------|
G|-2-------2-----2-----0-----------------------------------------------------|
D|---------2-----------0-----------------------------------------------------|
A|---------------------2-----------------------------------------------------|
E|---------------------3-----------------------------------------------------|
[ Tab from: http://www.guitartabs.cc/tabs/v/vonray/drifted_away_tab.html ]
Chorus
   D          G         A
e|-2----------3--------------------------------------------------------------|
B|-3----------3---------2----------------------------------------------------|
G|-2----------0---------2----------------------------------------------------|
D|------------0---------2----------------------------------------------------|
A|------------2--------------------------------------------------------------|
E|------------3--------------------------------------------------------------|

Solo
e|-----------------2/3/2-------2-3-5-3-2-3------------2-0--------------------|
B|-3-2--------3--3--------3-2-3------------3-2h3p2h3p-----3-2-3-2-2-3-0------|
G|------2-2-4--4-------------------------------------------------------------|
D|---------------------------------------------------------------------------|
A|---------------------------------------------------------------------------|
E|---------------------------------------------------------------------------|

Last Verse Pick the Verse Chords and Pick them and fade out.

End on D

Tossing and turning all night long
Searching for a place to call my own
Hoping this feeling might come along
On this journey so far from home
Cause I'm leaving tomorrow
Could I stay the night?
Cause I'm leaving tomorrow
Would it be all right?
Even though these feelings are hard to express
I've got to admit babe that you were the best
An expedition where life is a bliss
Let me go girl, but please tell me this
(Chorus)
Waiting for reasons why I should stay
Tired of watching seasons just drift away
Loving is easy or so they say
When I'm gone I know I'll wish I had stayed
(Chorus)
Well I've done it now, I've gone my own way
Even though I shouldn't have
I drifted away
Drifted away
But I'll be all right
Comments