Von Bondies - Fever Chords & Tabs

 

Fever Chords & Tabs

Von Bondies Chords & Tabs

Version: 1 Type: Tab 0 ratings
1 star 2 stars 3 stars 4 stars 5 stars
comments

Fever Tab


Intro:
Guitar:
|------------------------------------|\
|-------------------------7----------| \
|------7~---------7~------9^^^^(10)--|  \
|-9-7h9---9--9-7h9---9--9------------|  /x2
|-9----------9----------9------------| /
|-7----------7----------7------------|/

Bass Break:
|------------------------------------|\
|------------------------------------| \
|------------------------------------| /x2
|-777-987-555-757--------------------|/


Verse:
|------------------------------------------|\
|------------------------------------------| \
|------------------------------------------|  \
|-9999999999999999999999991212121214141414-|  /x4
|-9999999999999999999999991212121214141414-| / 
|-7777777788888888777777771010101012121212-|/
[ Tab from: http://www.guitartabs.cc/tabs/v/von_bondies/fever_tab.html ]
Chorus
|------------------------------------------|
|------------------------------------------|
|------------------------------------------|
|-9999-7777-5555-4444-1414141414141414-----|
|-9999-7777-5555-4444-1414141414141414-----|
|-7777-5555-3333-2222-1212121212121212-----|


Break:
|------------------------------------------|
|------------------------------------------|
|------------------------------------------|
|---9----99----9----9----------------------|
|---9----99----9----9----------------------|
|-5-7----77----7----7----------------------|


End
|------------------------------------------|
|------------------------------------------|
|------------------------------------------|
|-9999-7777-5555-4444-5555-7777-99999------|
|-9999-7777-5555-4444-5555-7777-99999------|
|-7777-5555-3333-2222-3333-5555-77777------|


ORDER
Intro
Verse
Chorus
Break
Intro
Verse
Chorus
Intro
Chorus
Bass break
Verse
End
Comments