Von Bondies - Cmon Cmon Chords & Tabs

 

Cmon Cmon Chords & Tabs

Von Bondies Chords & Tabs

Version: 4 Type: Tab 0 ratings
1 star 2 stars 3 stars 4 stars 5 stars
comments

Cmon Cmon Tab

-----------------------------------------------------------------------------
                             Cmon Cmon-Von Bondies
-----------------------------------------------------------------------------
i think its right
e----------------------------|  intro/verse X3
B----------------------------|
G----------------------------|
D---------0-2-2--------------|
A---2-3-3--------------------|
E---------------3-5-5--3-5-5-|

e------------------------------| After the above
B------------------------------|
G------------------------------|
D---------------2-2-2--2-2-2---|
A------------------------------|
E--1-1-1---3-3-3---------------|


Guitar one plays this almost the whole time

e-----------------------------------------------------------------|
B-----------------------------------------------------------------|
G--5-5-5---7-7-7-------------------5-5-5---9-9-9---5-5-5---5-5-5--|
D--5-5-5---7-7-7---7-7-7---7-7-7---5-5-5---9-9-9---7-7-7---7-7-7--|
A--3-3-3---5-5-5---7-7-7---7-7-7---3-3-3---7-7-7---7-7-7---7-7-7--|
E------------------5-5-5---5-5-5----------------------------------|
[ Tab from: http://www.guitartabs.cc/tabs/v/von_bondies/cmon_cmon_tab_ver_4.html ]
e--------------------------------------------------------------------|
B--------------------------------------------------------------------|
G--5-5-5---9-9-9----------------------------------9-9-9---9-9-9------|
D--5-5-5---9-9-9---7-7-7---5-5-5---3-3-3--3-3-3---9-9-9---9-9-9------|
A--3-3-3---7-7-7---7-7-7---5-5-5---3-3-3--3-3-3---7-7-7---7-7-7------|
E------------------5-5-5---3-3-3---1-1-1--1-1-1----------------------|


This is the part thats usually missing: the lead played over the chorus
these parts come in at various points so listen for them

e------------------------------------------|X3  
B------------------------------------------|    
G------------------------------------------|   
D------5--7b--5----------------------------|    
A---7------------7---5--7-7-7--5-7-7-7-----|  
E------------------------------------------|   

e-----------------------------------------|
B-----------------------------------------|
G------7b--5------------------------------|
D---5--7b--5------7-5-7-5-7-5--7-777777b--|
A-7------------7--------------------------|
E-----------------------------------------|

these last parts are played over the second repetition of the Am 
       
                         Play this after the last chord repetitions
e---------------| X3     e-------------------------------------------| 
B---------------|        B-------------------------------------------|
G---7-5-7-5-7-5-|        G---5------7---5---/99999-7-5---------------|
D---------------|        D-------7---------------------7-------------|
A---------------|        A-------------------------------------------|
E---------------|        E-------------------------------------------|
Comments