Von Bondies - Cmon Cmon Chords & Tabs

 

Cmon Cmon Chords & Tabs

Von Bondies Chords & Tabs

Version: 3 Type: Tab 0 ratings
1 star 2 stars 3 stars 4 stars 5 stars
comments

Cmon Cmon Tab

   
-------------------------------------------------------------------------------
			     C'mon C'mon - The Von Bondies
-------------------------------------------------------------------------------
Tuning:EADGBe

e|---------------------------------------------------------------------------|
B|---------------------------------------------------------------------------|
G|---------------------------------------------------------------------------|
D|---------------------------------------------------------------------------|
A|2--3-3---5--7-7------------------2--3-3--5--7-7----------------------------|
E|----------------3--5-5--3--5-5-----------------3--5-5--3--5-5--------------|


e|---------------------------------------------------------------------------|
B|---------------------------------------------------------------------------|
G|---------------------------------------------------------------------------|
D|---------------------------------------------------------------------------|
A|2--3-3---5--7-7--------------------------------7-7-7--7-7-7----------------|
E|----------------3--5-5--3--5-5---1-1-1--3-3-3------------------------------|


e|---------------------------------------------------------------------------|
B|---------------------------------------------------------------------------|
G|--5-5-5-x--7-7-7-x--------------------5-5-5-x--7-7-7-x---------------------|
D|--5-5-5-x--7-7-7-x--7-7-7-x--7-7-7-x--5-5-5-x--7-7-7-x--7-7-7-x--7-7-7-x---|\  
A|--3-3-3-x--5-5-5-x--7-7-7-x--7-7-7-x--3-3-3-x--5-5-5-x--7-7-7-x--7-7-7-x---| \
E|--------------------5-5-5-x--5-5-5-x--------------------5-5-5-x--5-5-5-x---|  \
                                                                                 \  3X
e|---------------------------------------------------------------------------|   /
B|---------------------------------------------------------------------------|  /
G|--5-5-5-x--7-7-7-x--------------------------------------9-9-9-x---9-9-9-x--| /
D|--5-5-5-x--7-7-7-x--7-7-7-x--5-5-5-x--3-3-3-x--3-3-3-x--9-9-9-x---9-9-9-x--|/  
A|--3-3-3-x--5-5-5-x--7-7-7-x--5-5-5-x--3-3-3-x--3-3-3-x--7-7-7-x---7-7-7-x--|
E|--------------------5-5-5-x--3-3-3-x--1-1-1-x--1-1-1-x---------------------|

e|---------------------------------------------------------------------------|
B|---------------------------------------------------------------------------|
G|---------------------------------------------------------------------------|
D|---------------------------------------------------------------------------|
A|2--3-3---5--7-7------------------2--3-3--5--7-7----------------------------|
E|----------------3--5-5--3--5-5-----------------3--5-5--3--5-5--------------|

[ Tab from: http://www.guitartabs.cc/tabs/v/von_bondies/cmon_cmon_tab_ver_3.html ]
e|---------------------------------------------------------------------------|
B|---------------------------------------------------------------------------|
G|---------------------------------------------------------------------------|
D|---------------------------------------------------------------------------|
A|2--3-3---5--7-7--------------------------------7-7-7--7-7-7----------------|
E|----------------3--5-5--3--5-5---1-1-1--3-3-3------------------------------|


e|---------------------------------------------------------------------------|
B|---------------------------------------------------------------------------|
G|--5-5-5-x--7-7-7-x--------------------5-5-5-x--7-7-7-x---------------------|
D|--5-5-5-x--7-7-7-x--7-7-7-x--7-7-7-x--5-5-5-x--7-7-7-x--7-7-7-x--7-7-7-x---|\  
A|--3-3-3-x--5-5-5-x--7-7-7-x--7-7-7-x--3-3-3-x--5-5-5-x--7-7-7-x--7-7-7-x---| \
E|--------------------5-5-5-x--5-5-5-x--------------------5-5-5-x--5-5-5-x---|  \
                                                                                 \  4X
e|---------------------------------------------------------------------------|   /
B|---------------------------------------------------------------------------|  /
G|--5-5-5-x--7-7-7-x--------------------------------------9-9-9-x---9-9-9-x--| /
D|--5-5-5-x--7-7-7-x--7-7-7-x--5-5-5-x--3-3-3-x--3-3-3-x--9-9-9-x---9-9-9-x--|/  
A|--3-3-3-x--5-5-5-x--7-7-7-x--5-5-5-x--3-3-3-x--3-3-3-x--7-7-7-x---7-7-7-x--|
E|--------------------5-5-5-x--3-3-3-x--1-1-1-x--1-1-1-x---------------------|


e|---------------------------------------------------------------------------|
B|---------------------------------------------------------------------------|
G|---------------------------------------------------------------------------|
D|---------------------------------------------------------------------------|
A|2--3-3---5--7-7------------------2--3-3--5--7-7----------------------------|
E|----------------3--5-5--3--5-5-----------------3--5-5--3--5-5--------------|


e|---------------------------------------------------------------------------|
B|---------------------------------------------------------------------------|
G|---------------------------------------------------------------------------|
D|---------------------------------------------------------------------------|
A|2--3-3---5--7-7--------------------------------7-7-7--7-7-7----------------|
E|----------------3--5-5--3--5-5---1-1-1--3-3-3------------------------------|


e|---------------------------------------------------------------------------|
B|---------------------------------------------------------------------------|
G|--5-5-5--7-7-7-------------------------------------------------------------|
D|--5-5-5--7-7-7--7-7-7------------------------------------------------------|
A|--3-3-3--5-5-5--7-7-7------------------------------------------------------|
E|----------------5-5-5------------------------------------------------------|



| /  slide up
| \  slide down
| h  hammer-on
| p  pull-off
| ~  vibrato
| +  harmonic
| x  Mute note
===============================================================================
Comments