Von Bondies - Cmon Cmon Chords & Tabs

 

Cmon Cmon Chords & Tabs

Von Bondies Chords & Tabs

Version: 2 Type: Tab 0 ratings
1 star 2 stars 3 stars 4 stars 5 stars
comments

Cmon Cmon Tab

   
----------------------------------------------------------------------------
			     C'Mon C'Mon - The Von Bondies
----------------------------------------------------------------------------
Tabbed by: James McIntosh
Email: bigoldguy@hotmail.com

Tuning: EADGBe

Note: Um...yeah theyre a cool band so i figured i should tab this
song....ummm...i will try and get one for "No Sugar Mama" next so yeah look out
for that....this song isnt particularly hard 2 tab....it might be hilariously out
of pitch or summin but o well u can correct..that.

Intro - Palm Mute (Check for Rhythm it may not be rite)
[ Tab from: http://www.guitartabs.cc/tabs/v/von_bondies/cmon_cmon_tab_ver_2.html ]
e|--------------------------------------------------------------------------
B|--------------------------------------------------------------------------
G|----------9-9-----------------------------99-999--------------------------
D|---10-10--9-9--5/77--5/77-------33---55---99-999--------------------------
A|---10-10--7-7--5/77--5/77-x3----33---55---77-777--------------------------
E|-7--8--8-------3/55--3/55-------11-0-33-0---------------------------------
PM===============================================================

Chorus

e|--------------------------------------------------------------------------
B|--------------------------------------------------------------------------
G|----------9-9-----------------------------99-999--------------------------
D|---10-10--9-9--5/77--5/77-----4-33---55---99-999--------------------------
A|---10-10--7-7--5/77--5/77-x3--4-33---55---77-777--------------------------
E|-7--8--8-------3/55--3/55-----2-11-0-33-0---------------------------------

Verse 1/Outro - Basically same as intro but with singing over the top.

Song Order: Intro
            Chorus x2 or x3 i couldnt be bothered to check
            Intro - played as bridge or summin
            Chorus - again played many times
            Verse 1/Outro 
            Chrous - First Line Only

And Das ist the end....ummm that was my first tab so it was probs rubbish bu
ooooo well.Gimme sum feed back and stuff..so....um....yeah..laturez :)


| /  slide up
| \  slide down
| h  hammer-on
| p  pull-off
| ~  vibrato
| +  harmonic
| x  Mute note
============================================================================
Comments