Von Bondies - Cmon Cmon Chords & Tabs

 

Cmon Cmon Chords & Tabs

Von Bondies Chords & Tabs

Version: 1 Type: Tab 0 ratings
1 star 2 stars 3 stars 4 stars 5 stars
comments

Cmon Cmon Tab

-----------------------------------------------------------------
The Von Bondies - C'mon C'mon
-----------------------------------------------------------------
Tabbed by: Shortys99887
Email: Shortys99887@hotmail.com

Tuning: Standard [EADGBe]
[ Tab from: http://www.guitartabs.cc/tabs/v/von_bondies/cmon_cmon_tab.html ]
Intro: 
e|---------------------------------------------------------------|
B|---------------------------------------------------------------|
G|---------------------------------------------------------------|
D|---------------------------------------------------------------|
A|2--3-3---5--7-7------------------2--3-3--5--7-7----------------|
E|----------------3--5-5--3--5-5-----------------3--5-5--3--5-5--|

PM...............................................................

e|---------------------------------------------------------------|
B|---------------------------------------------------------------|
G|---------------------------------------------------------------|
D|---------------------------------------------------------------|
A|2--3-3---5--7-7--------------------------------7-7-7--7-7-7----|
E|----------------3--5-5--3--5-5---1-1-1--3-3-3------------------|

PM...............................................................
Comments