Von Bondies - Cmon Cmon Chords & Tabs

 

Cmon Cmon Chords & Tabs

Von Bondies Chords & Tabs

Version: 3 Type: Bass Tab 0 ratings
1 star 2 stars 3 stars 4 stars 5 stars
comments

Cmon Cmon Bass Tab

Band:    The Von Bondies
Song:    C'mon C'mon
Tuning:  EADG
Tab by:  B3N 83

riff 1
G ------------------------|
D ------------------------|
A -2-33--5-77-------------|
E ------------------------|

riff 2
G ------------------------|
D ------------------------|
A -2-33--5-77-------------|
E -------------3-55--3-55-|
[ Tab from: http://www.guitartabs.cc/tabs/v/von_bondies/cmon_cmon_btab_ver_3.html ]
riff 3
G --------------------------------------------------|
D ----------------------------------------2-22-2-22-|
A -2-33--5-77---------------------------------------|
E -------------3-55--3-33--1-11-1-11-1-11-----------|

outro
G -------------|
D -------------|
A -333-555-----|
E ---------555-|


guitar intro
riff 1
riff 2
riff 3
riff 2 (x2)
riff 3
riff 2 (x2)
riff 3
guitar pause
riff 2 (x2)
riff 3
riff 2 (x2)
riff 3
riff 2 (x2)
riff 3
riff 2 (x2)
riff 3
guitar pause
outro


this is my second tab, please rate it and submit corrections if you find any.
thanks!
Comments