Von Bondies - Cmon Cmon Chords & Tabs

 

Cmon Cmon Chords & Tabs

Von Bondies Chords & Tabs

Version: 1 Type: Bass Tab 0 ratings
1 star 2 stars 3 stars 4 stars 5 stars
comments

Cmon Cmon Bass Tab

   
-----------------------------------------------------------------------------
			     C'mon C'mon Von Bondies
-----------------------------------------------------------------------------

Tabbed By : Holly
e-mail: kristencanplaybass@hotmail.com

Any problems just email.

Tuning:Standard
[ Tab from: http://www.guitartabs.cc/tabs/v/von_bondies/cmon_cmon_btab.html ]
Intro/Verse/Chorus/Outro
G|---------------------------------
D|---------------------------------
A|-2-3-3-5-7-7---------------------
E|-------------3-5-5---------------

Variation during verse:

G|---------------------------------
D|---------------------------------
A|-2-3-3-5-7-7---------------------
E|-------------3-5-5-3-0-0-3-7-7---


| /  slide up
| \  slide down
| h  hammer-on
| p  pull-off
| ~  vibrato
| +  harmonic
| x  Mute note
=============================================================================
Comments