Volt 16 - Suffering You Chords & Tabs

 

Suffering You Chords & Tabs

Volt 16 Chords & Tabs

Version: 1 Type: Tab 0 ratings
1 star 2 stars 3 stars 4 stars 5 stars
comments

Suffering You Tab

16 volt: Suffering you     Album: Super cool nothing V2

 This is my first time tabbing something out so bear with me,I'm not sure if its 100% correct i'm doing this with an acoustic. But, i haven't seen any 16 volt songs tabbed out anywhere so i'm gonna do this one, its very easy.........

Dropped d tuning  (DADGBE)
p-pull off     h-hammer on
m-mute        pm- palm mute

Intro:
        E------------------------------------------------------------------------              
        B-------------------------------------------------------------------------       4      
        G-----------------------------------------------------------------------       Times
        D---3p0---0--0---3p0---0--0---3p0-3p0---3p0---0--0---3p0---0--0---3p0-3p0          
        A---3p0---0--0---3p0---0--0---3p0-3p0---3p0---0--0---3p0---0--0---3p0-3p0
        D---3p0---0--0---3p0---0--0---3p0-3p0---3p0---0--0---3p0---0--0---3p0-3p0          
[ Tab from: http://www.guitartabs.cc/tabs/v/volt_16/suffering_you_tab.html ]
1st verse:
        E--------------------------------------------------------------------------------
        B--------------------------------------------------------------------------------        4
        G--------------------------------------------------------------------------------     Times
        D---3p0--m--0-m-0--3p0--m--0-m-0--3p0-3p0---3p0--m--0-m-0--3p0--m--0-m-0--3p0-3p0
        A---3p0--m--0-m-0--3p0--m--0-m-0--3p0-3p0---3p0--m--0-m-0--3p0--m--0-m-0--3p0-3p0
        D---3p0--m--0-m-0--3p0--m--0-m-0--3p0-3p0---3p0--m--0-m-0--3p0--m--0-m-0--3p0-3p0

Pre-chorus:
        E-----------------------------------------------------------------------------------------------
        B-----------------------------------------------------------------------------------------------     2
        G-----------------------------------------------------------------------------------------------   Times
        D---0--0---0-m-0-m---0--0---0-m-0-m---3--0--3--0---0--0---0-m-0-m---0--0---0-m-0-m---3--0--3--0
        A---0--0---0-m-0-m---0--0---0-m-0-m---3--0--3--0---0--0---0-m-0-m---0--0---0-m-0-m---3--0--3--0
        D---0--0---0-m-0-m---0--0---0-m-0-m---3--0--3--0---0--0---0-m-0-m---0--0---0-m-0-m---3--0--3--0

Chorus:
        E------------------------------------------------------------------------------------------
        B-------------------------------------------------------------------------------------------       4
        G---3---3-----------5--5-------------------------3---3-----------5--5-------------------------   Times
        D---3---3---0---0---5--5---5--5----4--4---3--3---3---3---0---0---5--5---5--5----4--4---3--3
        A---1---1---0---0---3--3---5--5----4--4---3--3---1---1---0---0---3--3---5--5----4--4---3--3
        D-----------0---0----------5--5----4--4---3--3-----------0---0----------5--5----4--4---3--3

The song goes as follows:
Intro
1st verse
Pre-chorus
Chorus
Intro
1st verse
Pre-chorus
Chorus
Intro
{End}
Comments