Volbeat - Lola Montez Chords & Tabs

 

Volbeat Chords & Tabs

Version: 1 Type: Tab 0 ratings
1 star 2 stars 3 stars 4 stars 5 stars
comments

Lola Montez Tab

   
Hey, this is my tab for Lola Montez by Volbeat, only rhythm guitar for now.
Please rate and send any corrections to bobbygosling@gmail.com. Thanks :D

Standard Tuning.

INTRO:
e|--------------------------------------------------------------------|
B|--------------------------------------------------------------------|
G|-77777777777777-----------------------------------------------------|
D|-77777777777777-55555555-77777777-----------------------------------|
A|-55555555555555-55555555-77777777-----------------------------------|
E|----------------33333333-55555555-----------------------------------|
   .............. ........ ........
   Feel the fire where she walks, Lola Montez so beautiful

e|--------------------------------------------------------------------|
B|--------------------------------------------------------------------|
G|-77777777777777-----------------------------------------------------|
D|-77777777777777-55555555-77777777-----------------------------------|
A|-55555555555555-55555555-77777777-----------------------------------|
E|----------------33333333-55555555-----------------------------------|
   .............. ........ ........
   Shady and a tempered dame, blinding your eyes with her spider...

e|--------------------------------------------------------------------|
B|--------------------------------------------------------------------|
G|-7~---------7-7-7-777~---7-7-7-777~---7-7-7-777~--------------------|
D|-7~---------7-7-7-777~---7-7-7-777~---7-7-7-777~--77777777----------|
A|-5~--------5555555555~--5555555555~--5555555555~--77777777----------|
E|--------------------------------------------------55555555----------|
             . . . .      . . . .      . . . .      ........
  ...dance

PRE-VERSE:
e|--------------------------------------------------------------------|
B|--------------------------------------------------------------------|
G|-77777777777777-----------------------------------------------------|
D|-77777777777777-55555555-77777777-----------------------------------|
A|-55555555555555-55555555-77777777-----------------------------------|
E|----------------33333333-55555555-----------------------------------|x2

e|--------------------------------------------------------------------|
B|--------------------------------------------------------------------|
G|-7~---------7-7-7-777~----------------------------------------------|
D|-7~---------7-7-7-777~----77777777----------------------------------|
A|-5~--------5555555555~----77777777----------------------------------|
E|--------------------------55555555----------------------------------|
             . . . .        ........

VERSE:
e|--------------------------------------------------------------------|
B|--------------------------------------------------------------------|
G|-77777777777777-----------------------------------------------------|
D|-77777777777777-55555555-77777777-----------------------------------|
A|-55555555555555-55555555-77777777-----------------------------------|
E|----------------33333333-55555555-----------------------------------|x2
   .............. ........ ........
   Her perfomance utterly erotic subversive to all ideas
   And for public morality, and cool as she was she didn't care

e|--------------------------------------------------------------------|
B|--------------------------------------------------------------------|
G|-7777777777777777---------------------------------------------------|
D|-7777777777777777-55555555-77777777---------------------------------|
A|-5555555555555555-55555555-77777777---------------------------------|
E|------------------33333333-55555555---------------------------------|
   .. .. . .. .. .  .. .. .  .. .. .
   See the miner throw his gold, lifting her skirt howling loud like a wolf

e|--------------------------------------------------------------------|
B|--------------------------------------------------------------------|
G|-77777777777777---------------------777777777.----------------------|
D|-77777777777777-55555555-77777777---777777777.----------------------|
A|-55555555555555-55555555-77777777---555555555.----------------------|
E|----------------33333333-55555555-----------------------------------|
   .............. .. .. .  .. .. .
   Hell raising and full of sin, when lola was dancing and showing her skin

CHORUS
e|--------------------------------------------------------------------|
B|--------------------------------------------------------------------|
G|-------------------777777777777777----------------------------------|
D|-55555555-77777777-777777777777777----------------------------------|
A|-55555555-77777777-555555555555555----------------------------------|
E|-33333333-55555555--------------------------------------------------|
   Wherever she walks, she will be, captivating all the men

e|--------------------------------------------------------------------|
B|--------------------------------------------------------------------|
G|--------------------------------------------------------------------|
D|-55555555-77777777--------------------------------------------------|
A|-55555555-77777777----5~-7~-9~-7~-10-9-7-5--------------------------|
E|-33333333-55555555--------------------------------------------------|
   Don't look in her eyes, you might fall and find the love of your life.

e|--------------------------------------------------------------------|
B|--------------------------------------------------------------------|
G|-------------------777777777777777----------------------------------|
D|-55555555-77777777-777777777777777----------------------------------|
A|-55555555-77777777-555555555555555----------------------------------|
E|-33333333-55555555--------------------------------------------------|
   Heavenly, but she'll catch you in her web.

e|--------------------------------------------------------------------|
B|--------------------------------------------------------------------|
G|--------------------------------------------------------------------|
D|-77777777-77777777--------------------------------------------------|
A|-77777777-77777777--------------------------------------------------|
E|-55555555-55555555--------------------------------------------------|
            ........
   The love of your life. Yeahhh.

POST-CHORUS:
e|--------------------------------------------------------------------|
B|--------------------------------------------------------------------|
G|-77777777777777-----------------------------------------------------|
D|-77777777777777-55555555-77777777-----------------------------------|
A|-55555555555555-55555555-77777777-----------------------------------|
E|----------------33333333-55555555-----------------------------------|x2

e|--------------------------------------------------------------------|
B|--------------------------------------------------------------------|
G|-7~---------7-7-7-777~----------------------------------------------|
D|-7~---------7-7-7-777~----77777777----------------------------------|
A|-5~--------5555555555~----77777777----------------------------------|
E|--------------------------55555555----------------------------------|
             . . . .        ........
[ Tab from: http://www.guitartabs.cc/tabs/v/volbeat/lola_montez_tab.html ]
VERSE:
e|--------------------------------------------------------------------|
B|--------------------------------------------------------------------|
G|-77777777777777-----------------------------------------------------|
D|-77777777777777-55555555-77777777-----------------------------------|
A|-55555555555555-55555555-77777777-----------------------------------|
E|----------------33333333-55555555-----------------------------------|x2
   .............. ........ ........
   Feel the fire where she walks, Lola Montez so beautiful.
   Shady and a tempered dame, blinding your eyes with her spider dance.

e|--------------------------------------------------------------------|
B|--------------------------------------------------------------------|
G|-7777777777777777---------------------------------------------------|
D|-7777777777777777-55555555-77777777---------------------------------|
A|-5555555555555555-55555555-77777777---------------------------------|
E|------------------33333333-55555555---------------------------------|
   .. .. . .. .. .  .. .. .  .. .. .
   Well notorious I have been, but never for fame that's what she said.


e|--------------------------------------------------------------------|
B|--------------------------------------------------------------------|
G|-77777777777777---------------------777777777.----------------------|
D|-77777777777777-55555555-77777777---777777777.----------------------|
A|-55555555555555-55555555-77777777---555555555.----------------------|
E|----------------33333333-55555555-----------------------------------|
   .............. .. .. .  .. .. .
   Dear Henry taste my whip, never to see any words you print.



CHORUS
e|--------------------------------------------------------------------|
B|--------------------------------------------------------------------|
G|-------------------777777777777777----------------------------------|
D|-55555555-77777777-777777777777777----------------------------------|
A|-55555555-77777777-555555555555555----------------------------------|
E|-33333333-55555555--------------------------------------------------|
   Wherever she walks, she will be, captivating all the men

e|--------------------------------------------------------------------|
B|--------------------------------------------------------------------|
G|--------------------------------------------------------------------|
D|-55555555-77777777--------------------------------------------------|
A|-55555555-77777777----5~-7~-9~-7~-10-9-7-5--------------------------|
E|-33333333-55555555--------------------------------------------------|
   Don't look in her eyes, you might fall and find the love of your life.

e|--------------------------------------------------------------------|
B|--------------------------------------------------------------------|
G|-------------------777777777777777----------------------------------|
D|-55555555-77777777-777777777777777----------------------------------|
A|-55555555-77777777-555555555555555----------------------------------|
E|-33333333-55555555--------------------------------------------------|
   Heavenly, but she'll catch you in her web.

e|--------------------------------------------------------------------|
B|--------------------------------------------------------------------|
G|--------------------------------------------------------------------|
D|-77777777-77777777--------------------------------------------------|
A|-77777777-77777777--------------------------------------------------|
E|-55555555-55555555--------------------------------------------------|
            ........
   The love of your life. Yeahhh.

BRIDGE:
e|--------------------------------------------------------------------|
B|--------------------------------------------------------------------|
G|--------------------------------------------------------------------|
D|-44444444-44-44444444444444-444-444-444-444-------------------------|
A|-44444444-44-44444444444444-444-444-444-444-------------------------|
E|-22222222-22-22222222222222-222-222-222-222-------------------------|
   ........ .. .............. ... ... ... ...

SOLO:
e|---------------------------------------------------------------------|
B|---------------------------------------------------------------------|
G|-7777777777777777----------------------------------------------------|
D|-7777777777777777-7777777777777777-9999999999999999-5555555555555555-|
A|-5555555555555555-7777777777777777-9999999999999999-5555555555555555-|
E|------------------5555555555555555-7777777777777777-3333333333333333-|x2


SECOND BRIDGE:
e|--------------------------------------------------------------------|
B|--------------------------------------------------------------------|
G|-9~----------7~-----------------------------------------------------|
D|-9~----7~----7~----5~-----------------------------------------------|
A|-7~----7~----5~----5~-----------------------------------------------|
E|-------5~----------3~-----------------------------------------------|x2
  Oh Lola I'm sure that the love would have been. 
  The key to all your pain, the key to all your pain.
  No words will later come, did the spider bite your tongue.
  We will surely not forget

e|--------------------------------------------------------------------|
B|--------------------------------------------------------------------|
G|--------------------------------------------------------------------|
D|-7777777777777777777777777------------------------------------------|
A|-7777777777777777777777777------------------------------------------|
E|-5555555555555555555555555------------------------------------------|
   ............. . ........
                           The lola spider da...

CHORUS:
e|--------------------------------------------------------------------|
B|--------------------------------------------------------------------|
G|-------------------777777777777777----------------------------------|
D|-55555555-77777777-777777777777777----------------------------------|
A|-55555555-77777777-555555555555555----------------------------------|
E|-33333333-55555555--------------------------------------------------|
   aaannceee... Wooahhhhooohhoohhhoohhh.

e|--------------------------------------------------------------------|
B|--------------------------------------------------------------------|
G|--------------------------------------------------------------------|
D|-55555555-77777777--------------------------------------------------|
A|-55555555-77777777----5~-7~-9~-7~-10-9-7-5--------------------------|
E|-33333333-55555555--------------------------------------------------|
   Don't look in her eyes, you might fall and find the love of your life.

e|--------------------------------------------------------------------|
B|--------------------------------------------------------------------|
G|-------------------777777777777777----------------------------------|
D|-55555555-77777777-777777777777777----------------------------------|
A|-55555555-77777777-555555555555555----------------------------------|
E|-33333333-55555555--------------------------------------------------|
   Heavenly, but she'll catch you in her web.

e|--------------------------------------------------------------------|
B|--------------------------------------------------------------------|
G|-------------------7~-----------------------------------------------|
D|-77777777-77777777-7~-----------------------------------------------|
A|-77777777-77777777-5~-----------------------------------------------|
E|-55555555-55555555--------------------------------------------------|
            ........
   The love of your life. Yeahhh.
Comments