Volante Nyoy - Nasaan Chords & Tabs

 

Nasaan Chords & Tabs

Volante Nyoy Chords & Tabs

Version: 2 Type: Tab 0 ratings
1 star 2 stars 3 stars 4 stars 5 stars
comments

Nasaan Tab

   
NYOY VOLANTE
NASAAN

TABBED BY: JOMAR FROM THE PHILIPPINES..

EMAIL: ppllggzz@yahoo.com prenster dn...

comments&suggestions are very much appreciated... sana nawa walang bastusan mga men

im only 16.. don't expect this tab to be perfect... :D

intro 
(originally done on the bass guitar :p)
|-----------------------------------------------------|
|-----------------------------------------------------|
|-----------------------------------------------------|
|----------2-----4----4/6---*----2-----4-----4/6------|
|----2h4----------------------------------------------|
|-----------------------------------------------------|
[ Tab from: http://www.guitartabs.cc/tabs/v/volante_nyoy/nasaan_tab_ver_2.html ]
|-----------------------------------------------------|
|-----------------------------------------------------|
|-----------------------------------------------------|
|----------2-----4/6-----4-------2--------------------|
|-----2h4---------------------------------------------|
|-----------------------------------------------------|

* = where the guitar riff starts.. which is A-f#m7-G#m7-C#m7
BRIDGE & pre chorus = F#m7-G#m7-C#m7


I KNOW IT'S NOT 100% CORRECT.. SO FEEL FREE TO MAIL ME FOR CORRECTIONS.. d:-)

basta kung feel nyo ako itext.. e2 number ko.. +639198368415 pasaload muna bago txt.. hehe :D
Comments