Voivod - We Carry On Chords & Tabs

 

We Carry On Chords & Tabs

Voivod Chords & Tabs

Version: 1 Type: Tab 0 ratings
1 star 2 stars 3 stars 4 stars 5 stars
comments

We Carry On Tab

   
Artist: Voivod
Song: We Carry On
Album: Voivod
User: coke_666  ->|Chile|
-------------------------------------------------------------------------------
                           VOIVOD - WE CARRY ON
-------------------------------------------------------------------------------

Intro:

e|------------------------|
B|------------------------|
G|------------------------|
D|---------7777777--------| (x4)
A|--000000----------------|
E|------------------------|

e|------------|
B|------------|
G|------------|
D|------------| (x8)
A|-0000-1-0-1-|
E|------------|

e|------------------|
B|------------------|
G|-14----12----10---|
D|--x-----x-----x---| (x9)
A|-12----10-----8---|
E|------------------|


Verses:
So we are ready for more adventures....
e|--------------------|
B|--------------------|
G|--------------------|
D|--------------------| (x9)
A|---000--333-----111-|
E|------------333-----|

Chorus:
In my heart...
e|------------------|
B|------------------|
G|-14----12----10---|
D|--x-----x-----x---| (x4)
A|-12----10-----8---|
E|------------------|

Later-Chorus:

e|-------------------|
B|-------------------|
G|-------------------|
D|-------------3...--| (x4)
A|-----1-1-3-3-------|
E|--3-3--------------|


Verses:
It really does make you feel strong...
e|--------------------|
B|--------------------|
G|--------------------|
D|--------------------| (x9)
A|---000--333-----111-|
E|------------333-----|

Chorus:
In my heart...
e|------------------|
B|------------------|
G|-14----12----10---|
D|--x-----x-----x---| (x9)
A|-12----10-----8---|
E|------------------|

Later-Chorus:
This is our time...
e|-------------------|
B|-------------------|
G|-------------------|
D|-------------3...--| (x8)
A|-----1-1-3-3-------|
E|--3-3--------------|

Bridge:

e|--------------------------------------------------------|
B|--------------------------------------------------------|
G|--------------------------------------------------------|
D|--------------------------------------------------------|
A|----1---3-1-----1---3-1-------1---3-1-----1---3-1-------|
E|--3---3-----3-3---3-----3-3-3---3-----3-3---3-----3-3-3-|
[ Tab from: http://www.guitartabs.cc/tabs/v/voivod/we_carry_on_tab.html ]
e|--------------------------------------------------|
B|--------------------------------------------------|
G|--------------------------------------------------|
D|--------------------------------------------------|
A|----1---3-1-----1---3-1-------1---3-1-----1---3-1-|
E|--3---3-----3-3---3-----3-3-3---3-----3-3---3-----|

Solo:

e|-------------------------------------------------------|
B|----3-4-4/8-6-8------3-4-4/8-6h8-6h8---3-4-4/8-6h8-6h8-|
G|--4----------------4-----------------4-----------------|
D|----------------5--------------------------------------|
A|-------------------------------------------------------|
E|-------------------------------------------------------|

e|---------------------------------------------|
B|--11-13-11h13/14-11h13/14-11h13/14-11h13/14--|
G|---------------------------------------------|
D|---------------------------------------------|
A|---------------------------------------------|
E|---------------------------------------------|

Bridge:

e|--------------------------------------------------------|
B|--------------------------------------------------------|
G|--------------------------------------------------------|
D|--------------------------------------------------------|
A|----1---3-1-----1---3-1-------1---3-1-----1---3-1-------|
E|--3---3-----3-3---3-----3-3-3---3-----3-3---3-----3-3-3-|

e|--------------------------------------------------|
B|--------------------------------------------------|
G|--------------------------------------------------|
D|--------------------------------------------------|
A|----1---3-1-----1---3-1-------1---3-1-----1---3-1-|
E|--3---3-----3-3---3-----3-3-3---3-----3-3---3-----|

Verses:
No need to say, it's far from pure...
e|--------------------|
B|--------------------|
G|--------------------|
D|--------------------| (x9)
A|---000--333-----111-|
E|------------333-----|

Chorus:
In my dreams...
e|------------------|
B|------------------|
G|-14----12----10---|
D|--x-----x-----x---| (x8)
A|-12----10-----8---|
E|------------------|

Later-Chorus & End Of Song:

e|-------------------|
B|-------------------|
G|-------------------|
D|-------------3...--| (x14)
A|-----1-1-3-3-------|
E|--3-3--------------|
Comments