Voivod - Real Again Chords & Tabs

 

Real Again Chords & Tabs

Voivod Chords & Tabs

Version: 1 Type: Bass Tab

Real Again Bass Tab

Band- Voivod
Song- Real Again

Play with distortion

Intro/bass solo
G|-----------------|------------------|------------------|
D|*-7-7-7-7-7-7----|-5-5-5-5-5-5-5---*|-5-5-5---5-5-5----|
A|*-------------7--|---------------7-*|-------7-------7\-|
E|-----------------|------------------|------------------|
  Repeat x6				 final measure

Riff 1
G|----------------|----------------|
D|----------------|----------------|
A|----------------|----------------|
E|-5-5-56-5-5-5-0-|-3-3-3-3-3-3-0--|
[ Tab from: http://www.guitartabs.cc/tabs/v/voivod/real_again_btab.html ]
verse
G|-----------------|-----------------|-----------------|
D|*----------------|----------------*|-----------------|
A|*----------------|----------------*|-----------------|
E|--5---5---5---50-|-3---3---3---30--|-3---30�-30--3\--|
  Repeat 4x                           Every fourth time

Riff 2
G|--------------|------------------|
D|--------------|------------------|
A|--------3-----|------------------|
E|-5--5�5---5---|-3-3-3-3-/6-6-6-6-|

Song Order

Intro
Riff 1 x8
Verse x2
Riff 1 x8
Riff 2 x12
Verse x2
Riff 1 x8
Riff 2 x16
Ending, play low G