Voivod - Gasmask Revival Chords & Tabs

 

Gasmask Revival Chords & Tabs

Voivod Chords & Tabs

Version: 1 Type: Bass Tab

Gasmask Revival Bass Tab

Band- Voivod
Song- Gasmask Revival

Play with distortion (a 5-string bass is used on this recording)

Main riff

G|------|---------------------|---------------------|
D|------|*--------------------|--------------------*|
A|-----1|*------------------1-|--------6-666-----1-*|
E|-1-3--|-3�33-3-1-3-33-1-3---|-33-3-1-------1-3----|

Verse 1
G|---------------------|---------------------|
D|---------------------|---------------------|
A|-------------------1-|--------6-666-----1--|
E|-3�33-3-1-3-33-1-3---|-33-3-1-------1-3----| x3

G|---------------------|-------------------|
D|---------------------|-------------------|
A|-------------------1-|--------6-66666----|
E|-3�33-3-1-3-33-1-3---|-33-3-1------------|

G|-------------------|---------------------|
D|-------5-----------|------5--------------|
A|-------------------|------------3-6-666--|
E|-3-3333-3-3-333333-|-3-3333-3-6----------| x2

Chorus 1

G|-------------|
D|-------------|
A|-------5-555-|
E|-8-5-8-------| x7

G|--------------|
D|--------------|
A|-------5-----1|
E|-8-5-8---1-3--|

G|---------------------|---------------------|
D|---------------------|---------------------|
A|-------------------1-|--------6-666-----1--|
E|-3�33-3-1-3-33-1-3---|-33-3-1-------1-3----| x2
[ Tab from: http://www.guitartabs.cc/tabs/v/voivod/gasmask_revival_btab.html ]
Verse 2
G|---------------------|---------------------|
D|---------------------|---------------------|
A|-------------------1-|--------6-666-----1--|
E|-3�33-3-1-3-33-1-3---|-33-3-1-------1-3----| x3

G|---------------------|-------------------|
D|---------------------|-------------------|
A|-------------------1-|--------6-66666----|
E|-3�33-3-1-3-33-1-3---|-33-3-1------------|

Chorus 2
G|-------------|
D|-------------|
A|-------5-555-|
E|-8-5-8-------| x8

G|-----------------------|
D|-----------------------|
A|----------------3-333--|
E|-3333-5555-6666--------| x7

G|-----------------------|
D|---5----7--------------|
A|-----------------------|
E|-33-3-55-5-6666-8-888--|

G|-----------------------|
D|-----------------------|
A|----------------3-333--|
E|-3333-5555-6666--------| x2

Guitar solo

G|---------------------|
D|---------------------|
A|-----------------111-|
E|-3-33-3-1-3-33-3-----| x8

Chorus 3

G|-------------|
D|-------------|
A|-------5-555-|
E|-8-5-8-------| x16

G|-----------------------|
D|-----------------------|
A|----------------3-333--|
E|-3333-5555-6666--------| x6

G|-----------------------|
D|---5----7--------------|
A|-----------------------|
E|-33-3-55-5-6666-8-888--| x4

G|-------------------------|
D|---5----7---------101010-|
A|-------------------------|
E|-33-3-55-5-6666-8--------| x4

G|-----------------------|
D|-----------------------|
A|----------------3-333--|
E|-3333-5555-6666--------| x8