Voivod - Facing Up Chords & Tabs

 

Facing Up Chords & Tabs

Voivod Chords & Tabs

Version: 1 Type: Bass Tab

Facing Up Bass Tab

   
Band- Voivod
Song- Facing Up

play with distortion effect

intro
G|---------|
D|---------|
A|---------|
E|-3-1-3-1-|
X8

Main riff
G|-----------|--------------|
D|-----------|--------------|
A|-------1-3-|-1-3�-3-1-----|
E|-3-1-3-----|----------1-1-|
X6

Main riff variation (one octave higher)
G|-------3-5-|-3-5�555-3-----|
D|-5-3-5-----|-----------3-3-|
A|-----------|---------------|
E|-----------|---------------|
X2

Verse
G|--------------------------|-------------------|
D|--------------------------|-------------------|
A|----------------------1-3�|-1-33-1-3-33-1-----|
E|-3-333-1-333-1-333-1-3----|---------------1-1-|
X4

Main riff 3, riff variation x1, verse x4
[ Tab from: http://www.guitartabs.cc/tabs/v/voivod/facing_up_btab.html ]
Chorus
G|-------------------------|-------------------------|
D|*-----------------------*|-------------------------|
A|*-----------------------*|-----------------------8-|
E|-1h333-1h333-1h333-1h333-|-1h333-1h333-1h333-8-10--|
                         X7
G|---------------------------------------------|
D|---------------------------------------------|
A|-8h101010-8h101010-8h101010-8h10101010-----8-|
E|--------------------------------------8-10---|x2

G|--------------------------------------------|
D|--------------------------------------------|
A|-8h101010-8h101010-8h101010-8h10101010------|
E|--------------------------------------8-10\-|


interlude
G|-----------------|---------------------|
D|-----------------|-------------3---5---|
A|-5-5-5-5-5-3-----|---------------3---5-|
E|-------------5-3-|-(3)-3-3-3-3---------|
X8 

G|-----------------|------------------|
D|-----------------|---------3---5----|
A|-5-5-5-5-5-5-5-5-|-5-5-5-5---3---5--|
E|-----------------|------------------|
X4
(he actually plays low D on his 5th string bass)

Main riff x2, variation x2

Repeat Chorus

ending
G|-----------------|-----------------|
D|-----------------|-----------------|
A|-----------------|-----------------|
E|-3-3-3-3-3-3-3-3-|-3-3-3-1-3-1-3-1-|
  X7