Voivod - Angel Rat Chords & Tabs

 

Angel Rat Chords & Tabs

Voivod Chords & Tabs

Version: 1 Type: Bass Tab

Angel Rat Bass Tab

Band- Voivod
Song- Angel Rat

Intro
G|-------|---------|
D|-------|---------|
A|-------|---------|
E|-1-----|-1/5-----| x4

Verse 1

G|-------|---------|
D|-------|---------|
A|-------|---------|
E|-1-----|-1/5-----| x4

G|---------------------|
D|-11--13-14-13-11-----|
A|-----------------12--|
E|---------------------| x2

Verse 2 

G|-------|---------|
D|-------|---------|
A|-------|---------|
E|-1-----|-1/5-----| x4

G|--------------------|--------------------|--------------------|-------------------|
D|-11--13-14-13-11----|-11�-13-14-13-11----|-11�-13-14-13-11----|-------------------|
A|----------------12--|---------------12---|-----------------12-|-------------------|
E|--------------------|--------------------|--------------------|-9--11-12-11-9--5--|

Refrain
[ Tab from: http://www.guitartabs.cc/tabs/v/voivod/angel_rat_btab.html ]
G|------------|------------|
D|------------|------------|
A|------------|------------|
E|-3---3-3-3/-|-5---5-5-5--| x4

Verse 3
G|------------|---------------|
D|------------|---------------|
A|-8---8-8-8/-|-11---11-11-11-|
E|------------|---------------| x4

Refrain
G|------------|------------|
D|------------|------------|
A|------------|------------|
E|-3---3-3-3/-|-5---5-5-5--| x4

Verse 4
G|------------|---------------|
D|------------|---------------|
A|-8---8-8-8/-|-11---11-11-11-|
E|------------|---------------| x4

Interlude riff
G|--------------------|--------------------|--------------------|-------------------|
D|-11--13-14-13-11----|-11�-13-14-13-11----|-11�-13-14-13-11----|-------------------|
A|----------------12--|----------------12--|-----------------12-|-------------------|
E|--------------------|--------------------|--------------------|-9--11-12-11-9--5--|

G|-------|---------|
D|-------|---------|
A|-------|---------|
E|-1-----|-1/5-----| repeat x8 to end